Song name
# A B C D E F G H I J K L M N O P Q R S T U V W X Y Z

Goo Goo Dolls - Come To Me tab

Tuning E A D G B e
OR       E A D G B c
both sound good.


I really love this song, and didn't feel like retuning my guitar. I found that the
chords given here aren't quite correct. They just don't sound right to me. I'm not
saying my
tab is perfect, but to me it sounds better than the chords in standard tuning here, but
I used the other tabs to come up with this version of the song. You can tune your high e
to a c if you want to get a slightly fuller sound, but you don't have to. You basically
keep a C major shape the whole song and just change the bass notes.

Intro + Verses (one of the verses in single strums)
----0-0-0-0--|
----1-1-1-1--|
----0-0-0-0--| x2
----2-2-2-2--|
--3-3-3-3-3--|
-------------|

----0-0-0-0--|
----1-1-1-1--|
----0-0-0-0--| x2
----2-2-2-2--|
----3-3-3-3--|
--1----------| You can play that with your thumb

Pre-Chorus
----0-0----0-0----0-0---0-0---0--0-0-0---0--0-0-0----|
----1-1----1-1----1-1---1-1---1--1-1-1---1--1-1-1----|
----0-0----0-0----0-0---0-0---0--0-0-0---0--0-0-0----| First Time
---------0------2------3-----2----------0------------|
--3--------------------------------------------------|
-----------------------------------------------------|

----0-0----0-0----0-0---0-0---0--0-0-0---0--0-0-0-|
----1-1----1-1----1-1---1-1---1--1-1-1---1--1-1-1-|
----0-0----0-0----0-0---0-0---0--0-0-0---0--0-0-0-| Second Time
---------0------2------3-----0----------0---------|
--3-----------------------------------------------|
--------------------------------------------------|

Do-Do-do part. Strumming not really specified....
----0-0-0-0--|
----1-1-1-1--|
----0-0-0-0--| x2
----2-2-2-2--|
----3-3-3-3--|
--1-1-1-1-1--| Once again play this with thumb

Chorus
----0-0-0-0---0-0-0-0----0-0-0-0---0-0-0-0------|
----1-1-1-1---1-1-1-1----1-1-1-1---1-1-1-1------|
----0-0-0-0---0-0-0-0----0-0-0-0---0-0-0-0------|
----2-2-2-2---2-2-2-2----2-2-2-2---2-2-2-2------|
--3---------3-----------2---------2-------------|
------------------------------------------------|

I'm not sure about the last chord, but they all sound okay

----0-0-0-0---0-0-0-0----0-0-0-0---0-0-0-0------|
----1-1-1-1---1-1-1-1----1-1-1-1---1-1-1-1------|
----0-0-0-0---0-0-0-0----0-0-0-0---0-0-0-0------|
----2-2-2-2---2-2-2-2----0-0-0-0---0-0-0-0------|
--0---------0-----------2---------2-------------|
------------------------3---------3-------------|


Post-Chorus (Similar to pre chorus)
----0-0----0-0----0-0---0-0---0--0-0-0---0--0-0-0----|
----1-1----1-1----1-1---1-1---1--1-1-1---1--1-1-1----|
----0-0----0-0----0-0---0-0---0--0-0-0---0--0-0-0----| x2
---------0------2------3-----2----------0------------|
--3--------------------------------------------------|
-----------------------------------------------------|

Second Chorus

----0-0-0-0---0-0-0-0----0-0-0-0---0-0-0-0------|
----1-1-1-1---1-1-1-1----1-1-1-1---1-1-1-1------|
----0-0-0-0---0-0-0-0----0-0-0-0---0-0-0-0------|
----2-2-2-2---2-2-2-2----2-2-2-2---2-2-2-2------|
--3---------3-----------2---------2-------------|
------------------------------------------------|

This part is the same as the first chorus.

----0-0-0-0---0-0-0-0----0-0-0-0---0-0-0-0------|
----1-1-1-1---1-1-1-1----1-1-1-1---1-1-1-1------|
----0-0-0-0---0-0-0-0----0-0-0-0---0-0-0-0------|
----2-2-2-2---2-2-2-2----0-0-0-0---0-0-0-0------|
--0---------0-----------2---------2-------------|
------------------------3---------3-------------|

Then another "do-do-do" and "start again" part. where it is the same chords are the
chorus, just switched a bit.

----0-0-0-0---0-0-0-0----0-0-0-0---0-0-0-0------|
----1-1-1-1---1-1-1-1----1-1-1-1---1-1-1-1------|
----0-0-0-0---0-0-0-0----0-0-0-0---0-0-0-0------|
----2-2-2-2---2-2-2-2----2-2-2-2---2-2-2-2------|
--3---------3-----------0---------0-------------|
------------------------------------------------|

----0-0-0-0---0-0-0-0----0-0-0-0---0-0-0-0------|
----1-1-1-1---1-1-1-1----1-1-1-1---1-1-1-1------|
----0-0-0-0---0-0-0-0----0-0-0-0---0-0-0-0------|
----0-0-0-0---0-0-0-0----2-2-2-2---2-2-2-2------|
--2---------2-----------2---------2-------------|
--3---------3-----------------------------------|

That's about it.
The arrangement it pretty straight forward just listen to the song and you will figure
it out.
Tap to rate this tab
# A B C D E F G H I J K L M N O P Q R S T U V W X Y Z