Guitaretab - guitar tabs
Song name
# A B C D E F G H I J K L M N O P Q R S T U V W X Y Z

Goo Goo Dolls - Dont Change tab

I'm from peru, mi  english is so bad, but i try to put this...
Ok This is only the intro of don't change.. Here we go...

x = Mute
[ Tab from: http://www.guitaretab.com/g/goo-goo-dolls/7092.html ]
E--x--------------------------------------------|
B--x--------------------------------------------|
G----9-9-9-9-9-9-9-9-9-9---9-9-9-9-9-9-9-9-9-9--|
D----7-7-7-7-7-7-7-7-7-7---7-7-7-7-7-7-7-7-7-7--|
A----0-0-0-0-0-0-0-0-0-0---9-9-9-9-9-9-9-9-9-9--|
E--x--------------------------------------------|

E--x--------------------------------------------|
B--x--------------------------------------------|
G----6-6-6-6-6-6-6-6-6-6---6-6-6-6-6-6-6-6-6-6--|
D----7-7-7-7-7-7-7-7-7-7---7-7-7-7-7-7-7-7-7-7--|
A----9-9-9-9-9-9-9-9-9-9---7-7-7-7-7-7-7-7-7-7--|
E--x--------------------------------------------|

repet this 2 times.
after
tha chords are: A - (quick down to G#) - F# - Bm - D - A

Enjoy it....

Walter z.

Related for Dont Change tab
Advertisement will be closed in 10 seconds