Song name
# A B C D E F G H I J K L M N O P Q R S T U V W X Y Z

Goo Goo Dolls - Falling Down tab

-----------------------------------------------------------------------------
			     Fallin Down - goo goo dolls
-----------------------------------------------------------------------------
Tabbed by: Andy S.
Email: Lemur_24@hotmail.com

Tuning: Standard

/ = slide

Intro                              
e|-----------------------------------------|
B|-----------------------------------------|
G|---6/4---4---6--6---2---6/4--4--4--4--2--|
D|---6/4---4---6--6---2---6/4--4--4--4--2--|
A|---4/2---2---4--4---0---4/2--2--2--2--0--|
E|-----------------------------------------|

Verse

   do you know where you wanna go, I aint got time for you now
e|------------------------------------------------------------|
B|------------------------------------------------------------|
G|---------4---------------2---------6---------------------2--|
D|---------4---------------2---------6---------------------2--|
A|---------2---------------0---------4---------------------0--|
E|------------------------------------------------------------|

    do you think there will ever be, 
e|----------------------------------|
B|----------------------------------|
G|-----------4-----------------6----|
D|-----------4-----------------6----|
A|-----------2-----------------4----|
E|----------------------------------|

Pre-Chorus

   cause all i ever want is so far gone
e|--------------------------------------|
B|--------------------------------------|
G|--9----------------6----------4---2---|
D|--9----------------6----------4---2---|
A|--7----------------4----------2---0---|
E|--------------------------------------|
    and if i had my chance id go along
e|--------------------------------------|
B|--------------------------------------|
G|------9-------------6-----------4-----|
D|------9-------------6-----------4-----|
A|------7-------------4-----------2-----|
E|--------------------------------------|

Chorus

    fall down           falling down again
e|-----------------------------------------|
B|-----------------------------------------|
G|---6/4---4---6--6---2---6/4--4--4--4--2--|
D|---6/4---4---6--6---2---6/4--4--4--4--2--|
A|---4/2---2---4--4---0---4/2--2--2--2--0--|
E|-----------------------------------------|
    fall down             catch me darlin
e|-----------------------------------------|
B|-----------------------------------------|
G|---6/4---4---6--6---2---6/4--4--4--4--2--|
D|---6/4---4---6--6---2---6/4--4--4--4--2--|
A|---4/2---2---4--4---0---4/2--2--2--2--0--|
E|-----------------------------------------|

Do you see, what you do to me? 
You ain't got time for it now 
Do you think, that I'll ever be?

'Cause all I ever wanted's so far gone 
And if I had my chance, I'd go along

You're making me fall down 
I'm falling down again 
I wish you could fall down 
Can you catch me darling?

'Cause all I ever wanted's so far gone 
And if I had my chance, I'd go along

You're making me fall down 
I'm falling down again 
I wish you could fall down 
Can you catch me darling?







=============================================================================
Tap to rate this tab
 
# A B C D E F G H I J K L M N O P Q R S T U V W X Y Z