Guitaretab - guitar tabs
Song name
# A B C D E F G H I J K L M N O P Q R S T U V W X Y Z

Goo Goo Dolls - Feel The Silence tab

Feel The Silence - Goo Goo Dolls

Tabbed by-aboynamedchris

Tuning: Standard

Symbols
b= bend 0nce
bb=bend twice
h= hammer on
/= slide   

Intro
e|-----------0---------------------------0-------------------------|
B|-----3------------3-------------3-------------3------------------|
G|--------2------2-------------------2-------2---------------------|
D|---0--------------------------0----------------------------------|
A|-----------------------------------------------------------------|
E|-----------------------------------------------------------------|
   
   verse 1

   You lie awake at night         With blue eyes that never cry
e|-----------0---------------------------0-------------------------|
B|-----3------------3-------------3-------------3------------------|
G|--------2------2-------------------2-------2---------------------|
D|---0--------------------------0----------------------------------|
A|-----------------------------------------------------------------|
E|-----------------------------------------------------------------|

   All you remember now          Is what you feel
e|-----------0---------------------------0-------------------------|
B|-----3------------3-------------3-------------3------------------|
G|--------2------2-------------------2-------2---------------------|
D|---0--------------------------0----------------------------------|
A|-----------------------------------------------------------------|
E|-----------------------------------------------------------------|

     The truth remains          In midnight conversations
e|-----------0---------------------------0-------------------------|
B|-----3------------3-------------3-------------3------------------|
G|--------2------2-------------------2-------2---------------------|
D|---0--------------------------0----------------------------------|
A|-----------------------------------------------------------------|
E|-----------------------------------------------------------------|
                                   
    I asked for this moment     But you turned away
     Em                           G
e|---0----------------------------3--------------------------------|
B|---0----------------------------3--------------------------------|
G|---0----------------------------0--------------------------------|
D|---2bb--------------------------0--------------------------------|
A|---2bb--------------------------2--------------------------------|
E|---0----------------------------0--------------------------------|
    Sad like a lonely child        Broken the day you're born
e|-----------0---------------------------0-------------------------|
B|-----3------------3-------------3-------------3------------------|
G|--------2------2-------------------2-------2---------------------|
D|---0--------------------------0----------------------------------|
A|-----------------------------------------------------------------|
E|-----------------------------------------------------------------|
   
       I held the light to you       But I was so vain
e|-----------0---------------------------0-------------------------|
B|-----3------------3-------------3-------------3------------------|
G|--------2------2-------------------2-------2---------------------|
D|---0--------------------------0----------------------------------|
A|-----------------------------------------------------------------|
E|-----------------------------------------------------------------|

      And you remain                     A promise unfulfilled
          Bm   G                              Bm     G
e|---------7---7-5-5-----------------------------2---2-5-5---------|
B|-----7-7---7-------------------------------0-0---0---------------|
G|-----------------------------------------------------------------|
D|-----------------------------------------------------------------|
A|-----------------------------------------------------------------|
E|-----------------------------------------------------------------|

I asked you for more        But you pushed me away
     Em                           G
e|---0----------------------------3--------------------------------|
B|---0----------------------------3--------------------------------|
G|---0----------------------------0--------------------------------|
D|---2bb--------------------------0--------------------------------|
A|---2bb--------------------------2--------------------------------|
E|---0----------------------------0--------------------------------|
[ Tab from: http://www.guitaretab.com/g/goo-goo-dolls/72521.html ]
   Chorus
    
  And if we feel the silence          Holding this all inside us
          Dsus   D                            Dsus     D
e|----5---------12-10-10-10-10---------5---------1210-10-10-10----|
B|----------7--------------------------------7---------------------|
G|-----------------------------------------------------------------|
D|-----------------------------------------------------------------|
A|-----------------------------------------------------------------|
E|-----------------------------------------------------------------|
    
    Everything means more now than      Words could explain
          Dsus   D                            Dsus     D
e|----5---------12-10-10-10-10---------5---------1210-10-10-10----|
B|----------7--------------------------------7---------------------|
G|-----------------------------------------------------------------|
D|-----------------------------------------------------------------|
A|-----------------------------------------------------------------|
E|-----------------------------------------------------------------|
     
   And if we feel the silence         Leaving this all behind us
          Dsus   D                            Dsus     D
e|----5---------12-10-10-10-10---------5---------1210-10-10-10----|
B|----------7--------------------------------7---------------------|
G|-----------------------------------------------------------------|
D|-----------------------------------------------------------------|
A|-----------------------------------------------------------------|
E|-----------------------------------------------------------------|
      
          1. Looking  for  something    more    to    say
          1. Bm                    A                   D
          2. When   it's   gone   what    will   you   say
          2.         Bm                        A                         
e|10-10-10-10-10-10-10---9-9-9-9-9-9-9---10-10-10-10-10-10-10-10-10|
B|-----------------------------------------------------------------|
G|-----------------------------------------------------------------|
D|-----------------------------------------------------------------|
A|-----------------------------------------------------------------|
E|-----------------------------------------------------------------|

     Verse 2
   I don't know where I'm going        Only know where I've been
       D                      Dsus                       D
e|------5----5----------------------------------------0------------|
B|----------------7-----7----5----5----7-------------3------------|
G|----------------------------------------------------2------------|
D|----------------------------------------------------0------------|
A|----------------------------------------------------0------------|
E|-----------------------------------------------------------------|
   
         But you move through my soul like a hurricane wind
       D            Dsus                       D
e|----2----------3--------3------------------2h3-2h3---5h7---------|
B|----3----------3-------3----------------------------------------|
G|----2----------2--------2----------------------------------------|
D|----0----------0--------0----------------------------------------|
A|-----------------------------------------------------------------|
E|-----------------------------------------------------------------|

We've been so lost for so long     I don't know how to get back again
       D            Dsus                         G      D
e|----0------------------------10-10--9-----10--10-9-10--10--------|
B|----3----------5-3-5---3--------------10-------------------------|
G|----2------------------------------------------------------------|
D|----0------------------------------------------------------------|
A|-----------------------------------------------------------------|
E|-----------------------------------------------------------------|

And we're drowning in the water        That flows under this bridge
       D            Dsus                    G       D
e|----2------2-----------------5----------------5-5-5---5----------|
B|----3------3---------------------7---5---7-----------------------|
G|----2------2-----------------------------------------------------|
D|----0------0-----------------------------------------------------|
A|-----------------------------------------------------------------|
E|-----------------------------------------------------------------|       

   When you're fighting the current       You forget how to live
      G                                    G
e|----3----3----------7-----5--5---------------5--5---7--7---------|
B|----3----3--------------------------7--7-------------------------|
G|----0----0-------------------------------------------------------|
D|----0----0-------------------------------------------------------|
A|----2----2-------------------------------------------------------|
E|----0----0-------------------------------------------------------|       

     And I wanted to reach you but I don't know where to begin
        D                                   G 
e|---7---5-5---------5-5----7-------7/10------10-10-9-----------|
B|-------------7-7--------------------------------------10-------|
G|---------------------------------------------------------------|
D|---------------------------------------------------------------|
A|---------------------------------------------------------------|
E|---------------------------------------------------------------|       

        And you remain                     A promise unfulfilled
          Bm   G                              Bm     G
e|---------7---7-5-5-----------------------------2---2-5-5---------|
B|-----7-7---7-------------------------------0-0---0---------------|
G|-----------------------------------------------------------------|
D|-----------------------------------------------------------------|
A|-----------------------------------------------------------------|
E|-----------------------------------------------------------------|

          A   promise   unfulfilled   until   today
          Bm               A               G
e|-------2-2-2-----------0-0-0------------3-3-3--------------------|
B|-------3-3-3-----------2-2-2------------3-3-3--------------------|
G|-------4-4-4-----------2-2-2------------0-0-0--------------------|
D|-------4-4-4-----------2-2-2------------0-0-0--------------------|
A|-------2-2-2-----------0-0-0------------3-3-3--------------------|
E|-------2-2-2----------------------------0-0-0--------------------|

       Play chorus
       
Riff
G
How do we hold on
Bm
How do we hold on
G
How do we hold on
Bm
How do we hold on
A     D
How do we hold on

                              You lie awake at night
e|-----------0---------------------------0-------------------------|
B|-----3------------3-------------3-------------3------------------|
G|--------2------2-------------------2-------2---------------------|
D|---0--------------------------0----------------------------------|
A|-----------------------------------------------------------------|
E|-----------------------------------------------------------------|
   

   With blue eyes that never cry           D
e|-----------0----------------------------x------------------------|
B|-----3------------3---------------------3------------------------|
G|--------2------2------------------------2------------------------|
D|---0------------------------------------0------------------------|
A|-----------------------------------------------------------------|
E|-----------------------------------------------------------------|

 

Related for Feel The Silence tab