Guitaretab - guitar tabs
Song name
# A B C D E F G H I J K L M N O P Q R S T U V W X Y Z

Goo Goo Dolls - Walkin With My Monkey tab

Highlighted       Show chord diagrams
e|---x-x---x-x---5-|
B|---x-x---x-x---4-|
G|---x-x---x-x---4-|
D|-----------------|
A|-----------------|
E|-2-----2-----2---|



Em7b5  F7/D F#sus4  Gmaj7  C
Monkey monkey monkey monkey monkey

E7           E9  E7#9  Fmag7  Fmag13  Fm13  F9sus4
I was walkin and i saw a monkey and he was a pretty monkey


 B7b5  B9#5  B13  Bm C#                B
oh yes he was he was pretty like a poo then  the monkey decided to barf on 
B
me
[ Tab from: http://www.guitaretab.com/g/goo-goo-dolls/73017.html ]
e--------------------------|
B--------------------------|
G--------------------------|
D-7--x-x-7-4/6-------------|
A-6--x-x-6-4/6-------------|
E-7--7-x-7-4---------------|

C#m7                          C7/D           C           C7
Oh yeah he barfed on me and i asked him if he could walk with me he said

Cm9
No i want to shoot you till you die

Cm7/A
Oh yeah walkin with my monkey

Cm7/A
Oh yeah walkin with my monkey

Cm7/A
Oh yeah walkin with my monkey

G7
Yeeaaahhhhhhhh
Related for Walkin With My Monkey tab
×
Walkin With My Monkey