Song name
# A B C D E F G H I J K L M N O P Q R S T U V W X Y Z

Goo Goo Dolls - Dawsons Creek tab

Goo Goo Dolls - Dawson's Creek

Intro
e-------------------------------------------------------------------|
B-------------------------------------------------------------------|
G-----0-----0---------0-----0---------0-----0---------------0-------|
D---------0---0-----------0---0-----------0---0-------0---0---0-----|
A---2---3-------2---2---3-------2---2---3-------2---2---3-------2---|
E-3---------------3---------------3---------------3-----------------|

e-------------------------------------------------------------------|
B-------------------------------------------------------------------|
G-----------0---------------0---------------0---------0-----0-------|
D-----0---0---0-------0---0---0-------0---0---0-----------0---0-----|
A---2---3-------2---2---3-------2---2---3-------2---2---3-------2---|
E-3---------------3---------------3---------------3-----------------|

e-------------------------------------------------------------------|
B-------------------------------------------------------------------|
G-----------0---------------0---------------0---------0-----0-------|
D-----0---0---0-------0---0---0-------0---0---0-----------0---0-----|
A---2---3-------2---2---3-------2---2---3-------2---2---3-------2---|
E-3---------------3---------------3---------------3-----------------|


Chorus
e---------------------------------------------------------------------|
B---------------------------------------------------------------------|
G---2-0---0-2-0-------0-----0-----------2-0---0-2-0-------0-----0-----|
D-0-----2-------0---0-----0---0-------0-----2-------0---0-----0---0---|
A-----------------3-------------2---------------------3-------------2-|
E-----------------------3-----------------------------------3---------|

e------------------------------------------------------------------|
B------------------------------------------------------------------|
G---2-0---0-2-0-------0-----0-------------0-----0------------------|
D-0-----2-------0---0-----0---0---------------0---0----------------|
A-----------------3-------------2-------2---3-------2--------------|
E-----------------------3-------------3---------------3------------|

e--------------------------------------------------3-----------------|
B--------------------------------------------------3-----------------|
G-----0-----0---------0-----0---------0-----0------0-----------------|
D---------0---0-----------0---0-----------0---0----0-----------------|
A---2---3-------2---2---3-------2---2---3-------2--2-----------------|
E-3---------------3---------------3----------------3-----------------|


Tap to rate this tab
 
# A B C D E F G H I J K L M N O P Q R S T U V W X Y Z