Song name
# A B C D E F G H I J K L M N O P Q R S T U V W X Y Z

Good 4 Nothing - Acoustic Closure tab

[part a]

    E|--0--0--0--0-|
    B|--3--1--0--1-|
    G|--0--0--0--0-|
    D|--2--2--2--2-|
    A|--3--3--3--3-|
    E|--0--0--0--0-|
Strum  4x 8x 4x 8x


[part b]
    E|--0--0--0--0-|
    B|--3--1--0--1-|
    G|--0--0--0--0-|
    D|--0--0--0--0-|
    A|--2--2--2--2-|
    E|--3--3--3--3-|
Strum  4x 8x 4x 8x

[part c]

    E|--0--0---0--0--0---1---0--|
    B|--1--0---1--0--0---0---0--|
    G|--2--2---0--0--0---0---2--|
    D|--2--2---2--2--0---0---0--|
    A|--0--0---3--3--2---2---0--|
    E|--0--0---3--3--3---3---2--|
      11x 1x 11x 1x 1x 11x 12x

    E|--0--0---0------3---|
    B|--1--0---1--------3-|
    G|--2--2---0----------|
    D|--2--2---2----------|
    A|--0--0---3----------|
    E|--0--0---3----------|
      11x 1x  1x [hold]

    E|--0--0-|
    B|--0--0-|
    G|--0--0-|
    D|--0--2-|
    A|--2--3-|
    E|--3--0-|
       5x 7x    <-- play four times

bridge [part d] D Am C Gopen 4x


ORDER OF SONG:
[Part A 2x] [Part B 2x] [Part A 2x] [Part B 2x] [Part C]
[Part A 2x] [Part B 2x] [Part A 2x] [Part B 2x] [Part C]
[Part D 4x]
[Part A 2x] [Part B 2x] PLAY UNTIL FADED

LISTEN TO SONG ON ::g4n.musicpage.com in download section
Tap to rate this tab
# A B C D E F G H I J K L M N O P Q R S T U V W X Y Z