Guitaretab - guitar tabs
Song name
# A B C D E F G H I J K L M N O P Q R S T U V W X Y Z

Good Charlotte - Seasons tab

Love this song. I tried my best to tab it. i t may not be 100% correct but its somewhere 
the 90 percentage range which is still an "A". :)

Intro:

  Clean/ Acoustic

    C                G              Fma7               C             G
e|--0----------------3----------------0----------------0-------------3--------|
B|--1----------------0----------------1----------------1-------------0--------|
G|--0----------------0----------------2----------------0------0------0--------|
D|--2----------------0----------------3----------------2--0h2-------0--------|
A|--3----------------2----------------0----------------3-------------2--------|
E|--x----------------3----------------x----------------x-------------3--------|


Verse 1 (x2)

    C                G              Fma7               C             G
e|--0----------------3----------------0----------------0-------------3--------|
B|--1----------------0----------------1----------------1-------------0--------|
G|--0----------------0----------------2----------------0------0------0--------|
D|--2----------------0----------------3----------------2--0h2-------0--------|
A|--3----------------2----------------0----------------3-------------2--------|
E|--x----------------3----------------x----------------x-------------3--------|


Chorus 1 (x2)

    C                G              Fma7               C             G
e|--0----------------3----------------0----------------0-------------3--------|
B|--1----------------0----------------1----------------1-------------0--------|
G|--0----------------0----------------2----------------0------0------0--------|
D|--2----------------0----------------3----------------2--0h2-------0--------|
A|--3----------------2----------------0----------------3-------------2--------|
E|--x----------------3----------------x----------------x-------------3--------|


Verse 2 (x2)

  Distorted

e|----------------------------------------------------------------------------|
B|----------------------------------------------------------------------------|
G|--5-5-5-5-5-5-5-5-5-5-5-5-5-------------------------------------------------|
D|--5-5-5-5-5-5-5-5-5-5-5-5-5--5-5-5-5-5-5-5-5-5-5-5-5-5---------------------|
A|--3-3-3-3-3-3-3-3-3-3-3-3-3--5-5-5-5-5-5-5-5-5-5-5-5-5----------------------|
E|-----------------------------3-3-3-3-3-3-3-3-3-3-3-3-3----------------------|
      * * * * * * * * * * * *    * * * * * * * * * * * *
e|----------------------------------------------------------------------------|
B|----------------------------------------------------------------------------|
G|----------------------------------------------------------------------------|
D|--3-3-3-3-3-3-3-3-3-3-3-3-3--5-5----0-5-5-5-5-5-5-------------------------|
A|--3-3-3-3-3-3-3-3-3-3-3-3-3--5-5-0h2---5-5-5-5-5-5--------------------------|
E|--1-1-1-1-1-1-1-1-1-1-1-1-1--3-3-------3-3-3-3-3-3--------------------------|
      * * * * * * * * * * * *

Bridge (x1)

 Slightly Distorted

e|------------------------------------------------------|
B|------------------------------------------------------|
G|------------------------------5-5-5-5-5---------------|
D|----5~--2~--5~--2~--5~--2~----5-5-5-5-5-5-5-5-5-5-5---|
A|----5~--2~--5~--2~--5~--2~----3-3-3-3-3-5-5-5-5-5-5---|
E|----7~--0~--7~--0~--7~--0~--------------3-3-3-3-3-3---|


Chorus 2 (x2)

 Heavy Distortion

e|----------------------------------------------------------------------------|
B|----------------------------------------------------------------------------|
G|--5-5-5-5-5-5-5-5-----------------------------------------------------------|
D|--5-5-5-5-5-5-5-5---5-5-5-5-5-5-5-5----------------------------------------|
A|--3-3-3-3-3-3-3-3---5-5-5-5-5-5-5-5-----------------------------------------|
E|--------------------3-3-3-3-3-3-3-3-----------------------------------------|
[ Tab from: http://www.guitaretab.com/g/good-charlotte/120832.html ]
e|----------------------------------------------------------------------------|
B|----------------------------------------------------------------------------|
G|-------------------------5-5------------------------------------------------|
D|--3-3-x-x-x-3-3-3-3-3-3--5-5----0-5-5-5-5-5-5-55---------------------------|
A|--3-3-x-x-x-3-3-3-3-3-3-3-3-0h2--5-5-5-5-5-5-5-5---------------------------|
E|--1-1-x-x-x-1-1-1-1-1-1-----------3-3-3-3-3-3-3-3---------------------------|


Verse 3 (x1)

 Slightly Distorted

e|----------------------------------------------------------------------------|
B|----------------------------------------------------------------------------|
G|--5~------------------------------------------5~----------------------------|
D|--5~------------5~-----------3~--------------5~---5~-----------------------|
A|--3~------------5~------------3~--------------3~---5~-----------------------|
E|----------------3~------------1~-------------------3~-----------------------|

e|----------------------------------------------------------------------------|
B|----------------------------------------------------------------------------|
G|--5-5-5-5-5-5-5-5-5-5-5-5-5-------------------------------------------------|
D|--5-5-5-5-5-5-5-5-5-5-5-5-5--5-5-5-5-5-5-5-5-5-5-5-5-5---------------------|
A|--3-3-3-3-3-3-3-3-3-3-3-3-3--5-5-5-5-5-5-5-5-5-5-5-5-5----------------------|
E|-----------------------------3-3-3-3-3-3-3-3-3-3-3-3-3----------------------|
      * * * * * * * * * * * *    * * * * * * * * * * * *
e|----------------------------------------------------------------------------|
B|----------------------------------------------------------------------------|
G|-------------------------------5--------------------------------------------|
D|--3-3-3-3-3-3-3-3-3-3-3-3-3----5--5-----------------------------------------|
A|--3-3-3-3-3-3-3-3-3-3-3-3-3----3--5-----------------------------------------|
E|--1-1-1-1-1-1-1-1-1-1-1-1-1-------3-----------------------------------------|
      * * * * * * * * * * * *


Chorus 3 (x2)

 Heavy Distortion

e|----------------------------------------------------------------------------|
B|----------------------------------------------------------------------------|
G|--5-5-5-5-5-5-5-5-----------------------------------------------------------|
D|--5-5-5-5-5-5-5-5---5-5-5-5-5-5-5-5----------------------------------------|
A|--3-3-3-3-3-3-3-3---5-5-5-5-5-5-5-5-----------------------------------------|
E|--------------------3-3-3-3-3-3-3-3-----------------------------------------|

e|----------------------------------------------------------------------------|
B|----------------------------------------------------------------------------|
G|-------------------------5-5------------------------------------------------|
D|--3-3-x-x-x-3-3-3-3-3-3--5-5----0-5-5-5-5-5-5-55---------------------------|
A|--3-3-x-x-x-3-3-3-3-3-3-3-3-0h2--5-5-5-5-5-5-5-5---------------------------|
E|--1-1-x-x-x-1-1-1-1-1-1-----------3-3-3-3-3-3-3-3---------------------------|


Outro (x2):

 Heavy Distortion

e|----------------------------------------------------------------------------|
b|----------------------------------------------------------------------------|
g|--5-5-5-5-5-5-5-5-----------------------------------------------------------|
d|--5-5-5-5-5-5-5-5---5-5-5-5-5-5-5-5----------------------------------------|
a|--3-3-3-3-3-3-3-3---5-5-5-5-5-5-5-5-----------------------------------------|
E|--------------------3-3-3-3-3-3-3-3-----------------------------------------|

e|----------------------------------------------------------------------------|
b|----------------------------------------------------------------------------|
g|-------------------------5-5------------------------------------------------|
d|--3-3-x-x-x-3-3-3-3-3-3--5-5----0-5-5-5-5-5-5-55---------------------------|
a|--3-3-x-x-x-3-3-3-3-3-3-3-3-0h2--5-5-5-5-5-5-5-5---------------------------|
E|--1-1-x-x-x-1-1-1-1-1-1-----------3-3-3-3-3-3-3-3---------------------------|


End on:

E|---|
B|---|
G|-5-|
D|-5-|
A|-3-|
E|---|

There you go. Pretty easy song. Any comments you can contact me at Zuukzter@aim.com    
Fun :)
Related for Seasons tab