Song name
# A B C D E F G H I J K L M N O P Q R S T U V W X Y Z

Good Charlotte - Hold On tab

‘’Hold On’’
Good Charlotte

PLEASE READ THIS FIRST... you might notice that other fields are the same but they are
they are individually played... so berer be carefull reading my tabs, if you want more
im a good tabber and im only 14. I also play Metallica and Guns N Roses so if you do 
some tabs of these bands or others… just email me at nch_jrm@yahoo.com and please, don’t
leave my tab w/out ratings, it disrespects my tab. Wish you all luck.

GTR. 1
E-------------------------------------0-------1---0----------|
B----1----3-1---1---1---3-1---1---1-------3-----------3---1--|
G------------------------------------------------------------|
D------------------------------------------------------------|
A-—3----3-----3---3---3-----3---3---3---3---3---3---3--------|
E------------------------------------------------------------|


GTR. 2 w/ Flange                    delayed...
E--0---1-----3---1-----0---1---3---3/5/3--|
B--1---------1---------1------------------|
G-----------------------------------------|
D-----------------------------------------|
A-----------------------------------------|
E-----------------------------------------|


This world
This world is cold
But you don't
You don't have to go
You're feeling sad, you're feeling lonely, and no one seems to care
Your mother's gone and your father hits you
This pain you cannot bear


GTR. 1
E--------------------------------------------|
B--------------------------------------------|
G--------------------------------------------|
D---------------------------------------5----|
A--5---------------------3--------------3----|
E--3---------------------1-------------------|


    But we all bleed the same way as you do


GTR. 2
E-----------------------------------------0-------1---0------------|
B---------------------------------------------3-----------3---1----|
G------------------------------------------------------------------|
D------------------------------------------------------------------|
A--5---------------------3--------------3---3---3---3---3---3---3--|
E--3---------------------1-----------------------------------------|


    But we all bleed the same way as you do


GTR 1 & 2                                PM PM pm pm pm
E--------------------------------------------------------|
B--------------------------------------------------------|
G--------------------------------------------------------|
D--------------------------------------------------------|
A--5-----------------3------------------3-3-3-3-3-3-3-3--|
E--3-----------------1------------------1-1-1-1-1-1-1-1--|

And we all have the same things to go through


GTR 1 & 2
E-------------------------------------------------------------------------|
B-------------------------------------------------------------------------|
G-------------------------------------------------------------------------|
D---5-5-5-5-5-5-5-5-------------------------------------------------------|
A---3-3-3-3-3-3-3-3--5-5-5-5-5-5-5-5--7-7-7-7-7-7-7-7----3-3-3-3-3-3-3-3--|
E--------------------3-3-3-3-3-3-3-3--5-5-5-5-5-5-5-5----1-1-1-1-1-1-1-1--|

     Hooooooooooold  on     if   you  feel like letting  go


GTR 1 & 2
E-------------------------------------------------------------------------|
B-------------------------------------------------------------------------|
G-------------------------------------------------------------------------|
D---5-5-5-5-5-5-5-5--------------------------------2----------------------|
A---3-3-3-3-3-3-3-3--5-5-5-5-5-5-5-5--7-7-7-7------2-----3-3-3-3-3-3-3-3--|
E--------------------3-3-3-3-3-3-3-3--5-5-5-5------0-----1-1-1-1-1-1-1-1--|

     Hooooooooooold  on  if  it gets  better now you’ll  know

GTR. 1
E-------------------------------------0-------1---0----------|
B----1----3-1---1---1---3-1---1---1-------3-----------3---1--|
G------------------------------------------------------------|
D------------------------------------------------------------|
A-—3----3-----3---3---3-----3---3---3---3---3---3---3--------|
E------------------------------------------------------------|


GTR. 2 w/ Flange                    delayed...
E--0---1-----3---1-----0---1---3---3/5/3--|
B--1---------1---------1------------------|
G-----------------------------------------|
D-----------------------------------------|
A-----------------------------------------|
E-----------------------------------------|


Your days
You say they're way too long
And your nights
You can't sleep at all
Hold on
And you're not sure what you're waiting for, but you don't want to know more
And you're not sure what you're looking for, but you don't want to know more


GTR. 1
E--------------------------------------------|
B--------------------------------------------|
G--------------------------------------------|
D---------------------------------------5----|
A--5---------------------3--------------3----|
E--3---------------------1-------------------|


    But we all bleed the same way as you do


GTR. 2
E-----------------------------------------0-------1---0------------|
B---------------------------------------------3-----------3---1----|
G------------------------------------------------------------------|
D------------------------------------------------------------------|
A--5---------------------3--------------3---3---3---3---3---3---3--|
E--3---------------------1-----------------------------------------|


    But we all bleed the same way as you do


GTR 1 & 2                                PM PM pm pm pm
E--------------------------------------------------------|
B--------------------------------------------------------|
G--------------------------------------------------------|
D--------------------------------------------------------|
A--5-----------------3------------------3-3-3-3-3-3-3-3--|
E--3-----------------1------------------1-1-1-1-1-1-1-1--|

And we all have the same things to go through


GTR 1 & 2
E-------------------------------------------------------------------------|
B-------------------------------------------------------------------------|
G-------------------------------------------------------------------------|
D---5-5-5-5-5-5-5-5-------------------------------------------------------|
A---3-3-3-3-3-3-3-3--5-5-5-5-5-5-5-5--7-7-7-7-7-7-7-7----3-3-3-3-3-3-3-3--|
E--------------------3-3-3-3-3-3-3-3--5-5-5-5-5-5-5-5----1-1-1-1-1-1-1-1--|

     Hooooooooooold  on     if   you  feel like letting  go


GTR 1 & 2
E-------------------------------------------------------------------------|
B-------------------------------------------------------------------------|
G-------------------------------------------------------------------------|
D---5-5-5-5-5-5-5-5--------------------------------2----------------------|
A---3-3-3-3-3-3-3-3--5-5-5-5-5-5-5-5--7-7-7-7------2-----3-3-3-3-3-3-3-3--|
E--------------------3-3-3-3-3-3-3-3--5-5-5-5------0-----1-1-1-1-1-1-1-1--|

     Hooooooooooold  on  if  it gets  better now you’ll  know


GTR 1 & 2
E-------------------------------------------------------------------------------------|
B-------------------------------------------------------------------------------------|
G-------------------------------------------------------------------------------------|
D---5-5-5-5-5-5-5-5-------------------------------------------------------------------|
A---3-3-3-3-3-3-3-3-----5-5-5-5-5-5-5-5--------7-7-7-7-7-7-7-7-------3-3-3-3-3-3-3-3--|
E-----------------------3-3-3-3-3-3-3-3--------5-5-5-5-5-5-5-5-------1-1-1-1-1-1-1-1--|

     Don't stop looking, you're one step closer don't stop searching, it's not over


GTR 1 & 2
E-------------------------------------------------------------------------|
B-------------------------------------------------------------------------|
G-------------------------------------------------------------------------|
D---5-5-5-5-5-5-5-5--------------------------------2----------------------|
A---3-3-3-3-3-3-3-3--5-5-5-5-5-5-5-5--7-7-7-7------2-----3-3-3-3-3-3-3-3--|
E--------------------3-3-3-3-3-3-3-3--5-5-5-5------0-----1-1-1-1-1-1-1-1--|

     Hoooooooooooooooooooooooooooooooold o-on


GTR 1 & 2
E--------------------------------------|
B--------------------------------------|
G--------------------------------------|
D---------------2----------------------|
A--7-7-7-7------2-----3-3-3-3-3-3-3-3--|
E--5-5-5-5------0-----1-1-1-1-1-1-1-1--|


GTR. 2
E--0-0-0-0-0-0-0-0-0-0-0-0---|
B--0-0-0-0-0-0-0-0-1-1-1-1---|
G----------------------------|
D----------------------------|
A----------------------------|
E----------------------------|


GTR 1 & 2
E------------------------------------|
B------------------------------------|
G------------------------------------|
D------------------------------------|
A--3-3-3-3-3-3-3-3-3-3-3-3-3-3-3-3---|
E--1-1-1-1-1-1-1-1-1-1-1-1-1-1-1-1---|


GTR. 2
E--0-0-0-0-0-0-0-0-0-0-0-0-0---|
B--0-0-0-0-0-0-0-0-1-1-1-1-0---|
G--------------------------0---|
D------------------------------|
A------------------------------|
E------------------------------|


GTR 1 & 2
E------------------------------------|
B------------------------------------|
G------------------------------------|
D------------------------------------|
A--3-3-3-3-3-3-3-3-3-3-3-3-3-3-3-3---|
E--1-1-1-1-1-1-1-1-1-1-1-1-1-1-1-1---|


GTR 2
E-------7-----7----7----7---|
B-----8-----8----8----8-----|
G---------------------------|
D---------------------------|
A--8------8----8----8-------|
E---------------------------|

                   What are you looking...

GTR 1 & 2
E------------------------------------|
B------------------------------------|
G------------------------------------|
D------------------------------------|
A--3-3-3-3-3-3-3-3-3-3-3-3-3-3-3-3---|
E--1-1-1-1-1-1-1-1-1-1-1-1-1-1-1-1---|

    Foooooooooooooooooooooooooor


GTR 2
E-------7-----7----7----7---|
B-----8-----8----8----8-----|
G---------------------------|
D---------------------------|
A--8------8----8----8-------|
E---------------------------|

                   What are you waiting...


GTR 1 & 2
E------------------------------------|
B------------------------------------|
G------------------------------------|
D------------------------------------|
A--3-3-3-3-3-3-3-3-3-3-3-3-3-3-3-3---|
E--1-1-1-1-1-1-1-1-1-1-1-1-1-1-1-1---|

    Fooooooooooooooooooooooooooor


GTR 1
E------------------------------|
B------------------------------|
G------------------------------|
D--0---0-0-0-0-0-0-0-0-0-0-0---|
A--2---3-3-2-3-3-2-3-3-2-3-3---|
E------------------------------|

    Do you know what you're doing to


GTR 2
E-------7-----7----7----7---|
B-----8-----8----8----8-----|
G---------------------------|
D---------------------------|
A--8------8----8----8-------|
E---------------------------|

    Do you know what you're doing to


GTR 1 & 2
E------------------------------------|
B------------------------------------|
G------------------------------------|
D------------------------------------|
A--3-3-3-3-3-3-3-3-3-3-3-3-3-3-3-3---|
E--1-1-1-1-1-1-1-1-1-1-1-1-1-1-1-1---|

    Meeeeeeeeeeeeeeeeeeeeeeee, Go a..


GTR 1
E------------------------------|
B------------------------------|
G------------------------------|
D--0---0-0-0-0-0-0-0-0-0-0-0---|
A--2---3-3-2-3-3-2-3-3-2-3-3---|
E------------------------------|

   ...head, what are you waiting


GTR 2
E-------7-----7----7----7---|
B-----8-----8----8----8-----|
G---------------------------|
D---------------------------|
A--8------8----8----8-------|
E---------------------------|

    ...head, what are you waiting


GTR 1 & 2
E---------------------------------------|
B---------------------------------------|
G---------------------------------------|
D---------------------------------------|
A--3-3-3-3-3-3-3-3----3-3-3-3-3-3-3-3---|
E--1-1-1-1-1-1-1-1----1-1-1-1-1-1-1-1---|

    Fooooooooo        hooooooooooooor


GTR 1 & 2
E-------------------------------------------------------------------------|
B-------------------------------------------------------------------------|
G-------------------------------------------------------------------------|
D---5-5-5-5-5-5-5-5-------------------------------------------------------|
A---3-3-3-3-3-3-3-3--5-5-5-5-5-5-5-5--7-7-7-7-7-7-7-7----3-3-3-3-3-3-3-3--|
E--------------------3-3-3-3-3-3-3-3--5-5-5-5-5-5-5-5----1-1-1-1-1-1-1-1--|

     Hooooooooooold  on     if   you  feel like letting  go


GTR 1 & 2
E-------------------------------------------------------------------------|
B-------------------------------------------------------------------------|
G-------------------------------------------------------------------------|
D---5-5-5-5-5-5-5-5--------------------------------2----------------------|
A---3-3-3-3-3-3-3-3--5-5-5-5-5-5-5-5--7-7-7-7------2-----3-3-3-3-3-3-3-3--|
E--------------------3-3-3-3-3-3-3-3--5-5-5-5------0-----1-1-1-1-1-1-1-1--|

     Hooooooooooold  on  if  it gets  better now you’ll  know


GTR 1 & 2
E-------------------------------------------------------------------------------------|
B-------------------------------------------------------------------------------------|
G-------------------------------------------------------------------------------------|
D---5-5-5-5-5-5-5-5-------------------------------------------------------------------|
A---3-3-3-3-3-3-3-3-----5-5-5-5-5-5-5-5--------7-7-7-7-7-7-7-7-------3----------------|
E-----------------------3-3-3-3-3-3-3-3--------5-5-5-5-5-5-5-5-------1----------------|

     Don't stop looking, you're one step closer don't stop searching, it's not over


GTR 1 & 2
E-------------------------------------------------------------------------|
B-------------------------------------------------------------------------|
G-------------------------------------------------------------------------|
D---5-5-5-5-5-5-5-5-------------------------------------------------------|
A---3-3-3-3-3-3-3-3--5-5-5-5-5-5-5-5--7-7-7-7-7-7-7-7----3-3-3-3-3-3-3-3--|
E--------------------3-3-3-3-3-3-3-3--5-5-5-5-5-5-5-5----1-1-1-1-1-1-1-1--|

     Hooooooooooold  on     if   you  feel like letting  go


GTR 1 & 2
E-------------------------------------------------------------------------|
B-------------------------------------------------------------------------|
G-------------------------------------------------------------------------|
D---5-5-5-5-5-5-5-5--------------------------------2----------------------|
A---3-3-3-3-3-3-3-3--5-5-5-5-5-5-5-5--7-7-7-7------2-----3-3-3-3-3-3-3-3--|
E--------------------3-3-3-3-3-3-3-3--5-5-5-5------0-----1-1-1-1-1-1-1-1--|

     Hooooooooooold  on  if  it gets  better now you’ll  know


GTR 1 & 2
E-------------------------------------------------------------------------|
B-------------------------------------------------------------------------|
G-------------------------------------------------------------------------|
D---5-5-5-5-5-5-5-5--------------------------------2----------------------|
A---3-3-3-3-3-3-3-3--5-5-5-5-5-5-5-5--7-7-7-7------2-----3-3-3-3-3-3-3-3--|
E--------------------3-3-3-3-3-3-3-3--5-5-5-5------0-----1-1-1-1-1-1-1-1--|

     Hoooooooooooooooooooooooooooooooold  ohn


GTR 1 & 2
E-------------------------|
B-------------------------|
G-------------------------|
D---------------2---------|
A--7-7-7-7------2-----3---|
E--5-5-5-5------0-----1---|


GTR 2
E-------7-----7-------7-----|
B-----8-----8----8----8-----|
G---------------------10----|
D---------------------------|
A--8------8----8------------|
E---------------------------|


TABBED BY: NICHOLAS C. HERNANDEZ  nch_jrm@yahoo.com
Tap to rate this tab
 
# A B C D E F G H I J K L M N O P Q R S T U V W X Y Z