Song name
# A B C D E F G H I J K L M N O P Q R S T U V W X Y Z

Good Charlotte - Movin On tab

Good Charlotte - Movin On
Tuning - Eb Ab Db Gb Bb Eb
Email - cecil_and_crunch@hotmail.com

Intro
Gtr I
eb|-------------------------|
Bb|-17-17-19-19-17-17-16-16-|
Gb|-21-21-21-21-21-21-21-21-|
Db|-------------------------|
Ab|-------------------------|
Eb|-------------------------|x6

Gtr II
eb|-------------------------------|
Bb|-------------------------------|
Gb|-----x-4--2---x-4------x-4--2--|
Db|-2---x-4--2---x-4--2---x-4--2--|
Ab|-2---x-2--0---x-2--2---x-2--0--|
Eb|-0-----------------0-----------|

Verse
Gtrs I & II
eb|---------------------------------------------------------------------------|
Bb|---------------------------------------------------------------------------|
Gb|-----------------------------6-6--6-6-6--6-6-6--6-6-6--6-2-2--2-2-2--2-2-2-|
Db|-2-2--2-2-2--2-2-2--2-2-2--2-6-6--6-6-6--6-6-6--6-6-6--6-2-2--2-2-2--2-2-2-|
Ab|-2-2--2-2-2--2-2-2--2-2-2--2-4-4--4-4-4--4-4-4--4-4-4--4-0-0--0-0-0--0-0-0-|
Eb|-0-0--0-0-0--0-0-0--0-0-0--0-4-4--4-4-4--4-4-4--4-4-4--4-------------------|
    . .  . . .  . . .  . . .  . . .  . . .  . . .  . . .  . . .  . . .  . . .
                                                                           Verse (continued)
------------------------------------------|
------------------------------------------|
-2-2-2--2-4-4-4-4-4-4-4-4-4-4-4-4-4-4-4-4-|
-2-2-2--2-4-4-4-4-4-4-4-4-4-4-4-4-4-4-4-4-|
-0-0-0--0-2-2-2-2-2-2-2-2-2-2-2-2-2-2-2-2-|
------------------------------------------|x2
 . . .  .

Bridge
Gtr I
eb|-------0----------0-----------------------|
Bb|---------0----------0---------------------|
Gb|------------------------------------------|
Db|-2----------4-----------2--2-2--2--2--2-2-|
Ab|-2--2-------4--4--------2--2-2--2--2--2-2-|
Eb|-0----------2-----------0--0-0--0--0--0-0-|x2

Gtr II
eb|------------------------------------------|
Bb|------------------------------------------|
Gb|------------------------------------------|
Db|-2----------4-----------2--2-2--2--2--2-2-|
Ab|-2----------4-----------2--2-2--2--2--2-2-|
Eb|-0----------2-----------0--0-0--0--0--0-0-|x2

Gtr I & II
eb|---------------------------------------------------------------------|
Bb|---------------------------------------------------------------------|
Gb|-2-2-2-2-2-4-4-4-4-4-4-4-4---------6-6-6-6-6-6-6-6-2-2-2-2-2-2-2-2-4-|
Db|-2-2-2-2-2-4-4-4-4-4-4-4-4-2-2-2-2-6-6-6-6-6-6-6-6-2-2-2-2-2-2-2-2-4-|
Ab|-0-0-0-0-0-2-2-2-2-2-2-2-2-2-2-2-2-4-4-4-4-4-4-4-4-0-0-0-0-0-0-0-0-2-|
Eb|---------------------------0-0-0-0-4-4-4-4-4-4-4-4-------------------|
                                                     . . . . . . . .

Chorus
Gtr I & II
eb|-----------------------------------------------------------------|
Bb|-----------------------------------------------------------------|
Gb|-------------------------4-4-4-4-2-2-2-2-2-2-2-2-2-2-2-2-4-4-4-4-|
Db|-2-2-2-2-2-2-2-2-2-2-2-2-4-4-4-4-2-2-2-2-2-2-2-2-2-2-2-2-4-4-4-4-|
Ab|-2-2-2-2-2-2-2-2-2-2-2-2-2-2-2-2-0-0-0-0-0-0-0-0-0-0-0-0-2-2-2-2-|
Eb|-0-0-0-0-0-0-0-0-0-0-0-0-----------------------------------------|x2


Gtr I Repeat Verse

Verse II
Gtr II
eb|---------------------------|
Bb|---------------------------|
Gb|---------------------------|
Db|-/9----11\6----7\2----6\4--|
Ab|---------------------------|
Eb|---------------------------|


Gtr I & II Repeat bridge
Gtr I & II Repeat Chorus X4


Interlude
Gtr I
eb|----------------------------------|
Bb|----------------------------------|
Gb|-------------9-9-9-------9-9------|
Db|-------9-9-9-------9-9-9-----9-9--|
Ab|-7-7-7----------------------------|
Eb|----------------------------------|x12
    . . . . . . . . . . . . . . . .
(Don't palm mute it the last 3 times)

Gtr II
eb|-12*----5*----5*-----|
Bb|-----5*----5*----5*--|
Gb|---------------------|
Db|---------------------|
Ab|---------------------|
Eb|---------------------|x4

Gtr II
eb|----------------------------------------------|
Bb|----------------12-12-12----------12-12-------|
Gb|-------11-11-11----------11-11-11-------11-11-|
Db|-9-9-9----------------------------------------|
Ab|----------------------------------------------|
Eb|----------------------------------------------|x4
    . . . .  .  .  .  .  .  .  .  .  .  .  .  .
(Don't palm mute it the fourth time)

Gtr I & II Repeat Chorus

Outro
Gtr I
eb|-------------------------|
Bb|-17-17-19-19-17-17-16-16-|
Gb|-21-21-21-21-21-21-21-21-|
Db|-------------------------|
Ab|-------------------------|
Eb|-------------------------|x4

Gtr II
eb|----------------------------------------|
Bb|----------------------------------------|
Gb|-----x-4--2---x-4------x-4--2---x-4-----|
Db|-2---x-4--2---x-4--2---x-4--2---x-4---2-|
Ab|-2---x-2--0---x-2--2---x-2--0---x-2---2-|
Eb|-0-----------------0------------------0-|


/ = slide up
\ = slide down
. = palm mute
* = harmonic
x = mute note
Tap to rate this tab
# A B C D E F G H I J K L M N O P Q R S T U V W X Y Z