Guitaretab - guitar tabs
Song name
# A B C D E F G H I J K L M N O P Q R S T U V W X Y Z

Good Charlotte - Predictable tab

Good Charlotte Predictable
From their latest album
Tabbed by Liam 
Email: guitar_rocker_47@hotmail.com 
Tuning standard

Most of the other tabs were just missing a little something, I think mine isnít, I
think it sounds really good Ė what do you think please leave feedback via the comments
or email and please rate it also, thanks

Strings intro 
e|----------------------------|----------------------------|
B|-4-4--4-4---5-5--5-5---5--5-|----------------------------|
G|-4-4--4-4---4-4--4-4---4--4-|-4-4--4-4---4-4--4-4---4--4-|
D|----------------------------|-1-1--1-1---2-2--2-2---2--2-|
A|----------------------------|----------------------------|
E|----------------------------|----------------------------|

Lead fill 1		Lead fill 2
e|-------12--11--|		e|---9---7--|
B|---12----------|		B|----------|
G|---------------|		G|----------|
D|---------------|		D|----------|
A|---------------|		A|----------|
E|---------------|		E|----------|

Intro
Both guitars
e|---------------------|
B|---------------------|
G|-------------------4-|
D|-6-6--6-6--6-6-----4-|
A|-6-6--6-6--6-6-----2-|
E|-4-4--4-4--4-4--3----|

Chorus
Guitar 1
e|---------------------------------|---------------------------------|
B|---------------------------------|---------------------------------|
G|-4-4-4-4-4-4-4-4-4-4-4-4-4-4-4-4-|---------------------------------|
D|-4-4-4-4-4-4-4-4-4-4-4-4-4-4-4-4-|-5-5-5-5-5-5-5-5-5-5-5-5-5-5-5-5-|
A|-2-2-2-2-2-2-2-2-2-2-2-2-2-2-2-2-|-5-5-5-5-5-5-5-5-5-5-5-5-5-5-5-5-|
E|---------------------------------|-3-3-3-3-3-3-3-3-3-3-3-3-3-3-3-3-|

Guitar 2
e|---------------------------------|---------------------------------|
B|---------------------------------|---------------------------------|
G|---------------------------------|---------------------------------|
D|------3-------3-------3-------3--|------4-------4-------4-------4--|
A|----4-------4-------4-------4----|----4-------4-------4-------4----|
E|--2-------2-------2-------2------|--2-------2-------2-------2------|

Guitar 1
e|---------------------------------|---------------------------------|
B|---------------------------------|---------------------------------|
G|---------------------------------|---------------------------------|
D|-7-7-7-7-7-7-7-7-7-7-7-7-7-7-7-7-|-3-3-3-3-3-3-3-3-3-3-3-3-3-3-3-3-|
A|-7-7-7-7-7-7-7-7-7-7-7-7-7-7-7-7-|-3-3-3-3-3-3-3-3-3-3-3-3-3-3-3-3-|
E|-5-5-5-5-5-5-5-5-5-5-5-5-5-5-5-5-|-1-1-1-1-1-1-1-1-1-1-1-1-1-1-1-1-|

Guitar 2
e|---------------------------------|---------------------------------|
B|---------------------------------|---------------------------------|
G|---------------------------------|---------------------------------|
D|------5-------5-------5-------5--|------4-------4-------4-------4--|
A|----4-------4-------4-------4----|----4-------4-------4-------4----|
E|--2-------2-------2-------2------|--2-------2-------2-------2------|

Post Chorus
Both guitars
e|--------------------|
B|--------------------|
G|--------------------|
D|-6-6--6-6--6-6--6-6-|
A|-6-6--6-6--6-6--6-6-|
E|-4-4--4-4--4-4--4-4-|

Post chorus fill
Guitar 2
e|-------|
B|-18\---|
G|-17\---|
D|-------|
A|-------|
E|-------|

Verse 2 part 1
Guitar 1
e|----------------------------|----------------------------|
B|-4-4--4-4---5-5--5-5---5--5-|----------------------------|
G|-4-4--4-4---4-4--4-4---4--4-|-4-4--4-4---4-4--4-4---4--4-|
D|----------------------------|-1-1--1-1---2-2--2-2---2--2-|
A|----------------------------|----------------------------|
E|----------------------------|----------------------------|
[ Tab from: http://www.guitaretab.com/g/good-charlotte/132543.html ]
Guitar 2
e|--------------------------------------------------12--11-|
B|-----------------------------------------------12--------|
G|---------------------------------------------------------|
D|---------------------------------------------------------|
A|---------------------------------------------------------|
E|---------------------------------------------------------|

Verse 2 part 2
Guitar 1
e|----------------------------|----------------------------|
B|-4-4--4-4---5-5--5-5---5--5-|----------------------------|
G|-4-4--4-4---4-4--4-4---4--4-|-4-4--4-4---4-4--4-4---4--4-|
D|----------------------------|-1-1--1-1---2-2--2-2---2--2-|
A|----------------------------|----------------------------|
E|----------------------------|----------------------------|

Guitar 2
e|----------------------9--7------------------------12--11-|
B|-----------------------------------------------12--------|
G|---------------------------------------------------------|
D|---------------------------------------------------------|
A|---------------------------------------------------------|
E|---------------------------------------------------------|

Pre Chorus
Guitar 1
e|----------------------------|---------------------|
B|-4-4--4-4---5-5--5-5---5--5-|---------------------|
G|-4-4--4-4---4-4--4-4---4--4-|-------------------4-|
D|----------------------------|-6-6--6-6--6-6-----4-|
A|----------------------------|-6-6--6-6--6-6-----2-|
E|----------------------------|-4-4--4-4--4-4--3----|

Guitar 2
e|----------------------9--7--|---------------------|
B|----------------------------|---------------------|
G|----------------------------|-------------------4-|
D|----------------------------|-6-6--6-6--6-6-----4-|
A|----------------------------|-6-6--6-6--6-6-----2-|
E|----------------------------|-4-4--4-4--4-4--3----|

Breakdown
Both guitars
e|-----------------------------------------------------------------------------|
B|-----------------------------------------------------------------------------|
G|-----------------------------------------4-4-4-4-----------------------------|
D|-2-2-2-2-2-4-4-4-4-4-2-2-2-2-2-6-6-6-6-6-4-4-4-4--4-4-4-4-4-2-2-2-2-6-6-6-6-6|
A|-2-2-2-2-2-4-4-4-4-4-2-2-2-2-2-6-6-6-6-6-2-2-2-2--4-4-4-4-4-2-2-2-2-6-6-6-6-6|
E|-0-0-0-0-0-2-2-2-2-2-0-0-0-0-0-4-4-4-4-4----------2-2-2-2-2-0-0-0-0-4-4-4-4-4|

Bridge
Guitar 1
e|-----------------------------------------------------------|
B|-----------------------------------------------------------|
G|---------------------------------------------------------4-|
D|-6-6-------------------------6-6-----7--7-----6-6-----6--4-|
A|-6-6-------------------------6-6-----7--7-----6-6-----6--2-|
E|-4-4-------------------------4-4-----5--5-----4-4-----4----|

Guitar 2
e|-6-7-4-6-0-4---0-----------|-6-7-4-6-0-4-0--0---0---0------|
B|-------------4---2-4-0-4---|--------------4---2---4---0-4--|
G|-------------------------1-|-----------------------------1-|
D|---------------------------|-------------------------------|
A|---------------------------|-------------------------------|
E|---------------------------|-------------------------------|

Outro
Guitar 1
e|-----------------|-----------------|-----------------|------------|
B|-----------------|-----------------|-----------------|------------|
G|-----------------|-----------------|-----------------|------------|
D|-2-2-------------|-2-2-------------|-2-2-------------|----6~~~~~--|
A|-2-2-------------|-2-2-------------|-2-2-------------|----6~~~~~--|
E|-0-0-------------|-0-0-------------|-0-0-------------|-4--4~~~~~--|

Guitar 2
e|-----------------|-----------------|-----------------|------------|
B|-----------------|-----------------|-----------------|------------|
G|-----------------|-----------------|-----------------|------------|
D|------0-33-------|------0-33-------|------0-33-------|----6~~~~~--|
A|------------4--2-|------------4--2-|------------4--2-|----6~~~~~--|
E|-0-0-------------|-0-0-------------|-0-0-------------|-4--4~~~~~--|

Order

Strings intro x4 and a half (with lead fill 1 x3 then lead fill 2 and
then lead fill 1 and end on lead fill 2)
Intro
Chorus x2
Post Chorus
Post Chorus fill
Verse 2 part 1 x2
Verse 2 part 2
Pre Chorus
Chorus x2
Breakdown
Bridge
Chorus x3
Outro
Related for Predictable tab