Guitaretab - guitar tabs
Song name
# A B C D E F G H I J K L M N O P Q R S T U V W X Y Z

Good Charlotte - Secrets tab

_  (   |_  /'  |)  |_  |`  (   _
  ._)  |__  \__,  |\  |__    |    ._)  

OK guys, here's another tab. I really like this song and it's really fun 
to play it. I've tried to do it as easy as possible to understand,
but it's so hard to explain exactly how to play it. but if you have any questions
about this tab, e-mail me or write a comment :D

The strumming in this 
song is kinda tricky, but if you listen to the song I'm sure you'll get it right.

Have fun!

------------------------------------------
[INTRO]= play the same chords as the intro
------------------------------------------


"Tuned down 1/2 step"

INTRO
eb|--0--0--0--0--0--00--0-00---------------------------|
Bb|--1--1--1--1--1--11--1-11---------------------------|
Gb|--0--0--0--0--2--00--0-00---------------------------|
Db|--2--0--2--0--3--00--2-22---------------------------|
Ab|--3--2--0--2--3--22--3-33---------------------------|
Eb|-----------3-----33---------------------------------|

VERSE
F
In the dark
		          Am
In the darkness you will find
F			     Am
Dirty little secrets we all hide
C			     Am
Cause' we all have a darker side
F                                       G
A place we keep where no one else will find

PRECHORUS
[INTRO]2x
Cause' everybody wants to hide their secrets away
Nobody wants to stand up to the pain
[ Tab from: http://www.guitaretab.com/g/good-charlotte/133035.html ]
CHORUS
[4x]
eb|---------0-0--xxx-33-3----55-5-55-5-555----------|
Bb|---------1-1--xxx-33-3----66-6-66-6-666----------|
Gb|---------0-0--xxx-00-0----77-7-77-7-777----------|
Db|---------2-2--xxx-00-0----77-7-77-7-777----------|
Ab|---------3-3--xxx-22-2----55-5-55-5-555----------|
Eb|------------------33-3---------------------------|
But I will stand up to the pain
Wake up and fight again
If you could dance with me through this rain
And we will fight, we'll fight again, 
       [INTRO]
fight again


VERSE

PRECHORUS

CHORUS
...fight again

BRIDGE 6x
eb|----------------------------------------------|
Bb|----------------------------------------------|
Gb|---555--999-9---1010--77-777777---------------|
Db|---xxx--xxx-x---x-x---xx-xxxxxx---------------|
Ab|---333--777-7---8-8---55-555555---------------|
Eb|----------------------------------------------|

All my life I hide my secrets away, 
In the dark, in the dark, in the dark
We all try to hide our secrets away,
In the dark, in the dark, in the dark

CHORUS
         [INTRO]2x
...fight again
...fight again

[INTRO]2x
Cause' everybody wants to hide their secrets away
And that's ok
Nobody wants to stand up to the pain
Fight again

END
eb|---0--3----5----------|
Bb|---1--3----6----------|
Gb|---0--0----7----------|
Db|---2--2----7----------|
Ab|---3--2----5----------|
Eb|------3---------------|
Related for Secrets tab