Song name
# A B C D E F G H I J K L M N O P Q R S T U V W X Y Z

Good Charlotte - Fight Song tab

This is a tab of Good Charlotte's new song with the Game, it's really easy, so I'm 
sure it's right.

INTRO
e|--------|-----------------------|
B|--------|-----------------------|
G|-7~-----|-----------------------| x4
D|-7~-----|-7-7~------5-5~--------|
A|-5~-----|-7-7~------5-5~--------|
E|--------|-5-5~------3-3~--------|

VERSES

Guitar
e|----------------|----------------|
B|----------------|----------------|
G|----------------|----------------| x6
D|----------------|----------------|
A|----------------|----------------|
E|-5-------5-5----|-3-3----------3-|

Electronic Part
This part is played only once on the third time that the guitar part is repeated.

e|----------------|-----------------|
B|-7-----7-8-7~---|-7-----7-10-8-7--|
G|-----7----------|-----7-----------|
D|---9------------|---9-------------|
A|----------------|-----------------|
E|----------------|-----------------|


CHORUS

e|--------|-----------------------|
B|--------|-----------------------|
G|-7~-----|-----------------------| x2
D|-7~-----|-7-7~------5-5~--------|
A|-5~-----|-7-7~------5-5~--------|
E|--------|-5-5~------3-3~--------|
Said whoa, this is a fight...

e|--------|-----------------------|
B|--------|-----------------------|
G|--------|-----------------------|
D|-9~-----|-7-7~------5-5~--------|
A|-9~-----|-7-7~------5-5~--------|
E|-7~-----|-5-5~------3-3~--------|
Said no, we dont want that...

e|--------|-----------------------|
B|--------|-----------------------|
G|-7~-----|-----------------------|
D|-7~-----|-7-7~------5-5~--------|
A|-5~-----|-7-7~------5-5~--------|
E|--------|-5-5~------3-3~--------|
Said whoa, this is a fight...

The second verse is the same as the first, except that it's only played 5 times, 'cause 
the fourth time there's no guitar.

The chorus is the same, and the bridge doesn't have guitar.
Play the chorus at the end, and that's it.
Tap to rate this tab
# A B C D E F G H I J K L M N O P Q R S T U V W X Y Z