Song name
# A B C D E F G H I J K L M N O P Q R S T U V W X Y Z

Good Charlotte - If You Leave tab

Artist: Good Charlotte
Title: If You Leave
Album: I seriously DONT KNOW

Tabbed by: necriononguitar
E-mail: tim.rathgen@web.de

Tuning: Half-step down

Link to the song:
-->http://de.youtube.com/watch?v=_jXcust4W1E

Intro:
1. Guitar
E--------------------|
B--------------------|
G---7----------------|
D---7---5---7---5----|  ...and then
A---5---5---7---5----|
E-------3---5---3----|

E-----------------------------------|
B-----------------------------------|
G---7-------------------------------|
D---7-x8---5------7------5----------|
A---5------5-x8---7-x8---5-x8-------|
E----------3------5------3----------|

2. Guitar:
E----------------------------------------------------------------------|
B----------------------------------------------------------------------|
G---11-9--11-9--7----11-9--11-9--7----11-9--11-9--7---6-77-9-11-11-----|
D----------------------------------------------------------------------|
A----------------------------------------------------------------------|
E----------------------------------------------------------------------|

(You dont have to slide up every note, they dont have the skills to do that)

Verse:
Base line! (NO GUITAR)

At one time Guitar 2. starts playing this 2 notes which get louder and louder:
E------------------------------------|
B------------------------------------|
G---10-x16---9-x8---10x8-------------|
D------------------------------------|
A------------------------------------|
E------------------------------------|

Now Guitar 1 plays:
  All PM
E------------------------------------------------------------------------|
B------------------------------------------------------------------------|
G------------------------------------------------------------------------|
D---3-------7-x8----8------10--------------3-------7-x8---7-----10-------|
A---3-x8----5-------8-x8---10--x8----------3-x8----5------7-x8--10-x8----|
E---1---------------6------8---------------1--------------5-----8--------|

Chrous (only Guitar 1)
E---------------------------------------|
B---------------------------------------|
G----7----------------------------------|
D----7-x8---5-------7------5------------|
A----5------5-x8----7-x8---5-x8---------|
E-----------3-------5------3------------|

The End of the Chorus:
            [ PM! ]
E-------------------------|
B-------------------------|
G--7----------------------|
D--7----5----5-5-5--------|
A--5----5----5-5-5--------|
E-------3----3-3-3--------|


Verse:
Guitar 1
NOW they play the same stuff one whole note above! I dont know why,
but it sounds cool
   PM! ALL
E---------------------------------------------------------------------|
B---------------------------------------------------------------------|
G------------------5------7--------------------------4------5---------|
D---5------2-------5-x8---7-x8--------5------2-------4-x8---5--x8-----|
A---5-x8---2-x8----3------5-----------5-x8---2-x8----2------3---------|
E---3------0--------------------------3------0------------------------|

U play this stuff above 2 times , but the 2. time without PM!

Guitar 2:
E-------------------------------------------------------|
B-------------------------------------------------------|
G--12-----12-----12----12----12----12----11-12-11-------|
D-------------------------------------------------------|
A-------------------------------------------------------|
E-------------------------------------------------------|

E------------------------------------------------|
B------------------------------------------------|
G--12-----12-----12-----12-----11-----12---------|
D------------------------------x--~---x--~-------|
A------------------------------9------10---------|
E------------------------------------------------|

Now as the song gets louder Guitar 2 plays the same stuff as Guitar 1
(The Chords)

Chorus: (strange version)
E------------------------------------|
B------------------------------------|
G--9------14------16------14---------|
D--9-x8---14-x8---16-x8---14-x8------|
A--7------12------14------12---------|
E------------------------------------|

Break:
E------------------------------------|
B------------------------------------|
G---9--------------------------------|
D---9-----11------7-----9------------|
A---7-----11------7-----9------------|
E---------9-------5-----7------------|

Turnup: (same as Break)
    All PM!
E-------------------------------------|
B-------------------------------------|
G---9---------------------------------|
D---9-x8----11-------7------9---------|
A---7-------11-x8----7-x8---9-x8------|
E-----------9--------5------7---------|

Outro-Chorus:
Now they get even higher... I think thats the reason why they didnt put it on the record...
E---------------------------------------|
B---------------------------------------|
G----11---------------------------------|
D----11-x8--9-------11------9-----------|
A----9------9-x8----11-x8---9-x8--------|
E-----------7-------9-------7-----------|

THE END

The end sounds so different to the intro... this song is very complicated...

Please rate and show your friends^^

Have a Good Day!
Tap to rate this tab
# A B C D E F G H I J K L M N O P Q R S T U V W X Y Z