Song name
# A B C D E F G H I J K L M N O P Q R S T U V W X Y Z

Good Charlotte - March On Acoustic tab

Artist: Good Charlotte
Song: March on
Album: Good Morning Revival

Tabbed by: necriononguitar
E-Mail: tim.rathgen@web.de

Link to the song:
http://de.youtube.com/watch?v=Ks-NN0rYcDI  (kinda bad quality, i know)

Tuning: 1-step down (Acoustic-tuning)

//Intro/Verse\\:    (i named the chords as usual)
           G                         G/F#
D----------------------------------------------------|
A-------0------0---------------0-------0-------------|
F----7-------7------7--------7-------7------7--------|
C--5-------5------5--------4-------4------4----------|
G----------------------------------------------------|
D----------------------------------------------------|

          E                          D
D----------------------------------------------------|
A------0------0-----------------0-----0--------------|
F----4------4------4----------2-----2------2---------|
C--2------2------2----------0-----0------0-----------|
G----------------------------------------------------|
D----------------------------------------------------|

            C                      D
D------------------------------------------------------|
A------------------------------------------------------|
F--------0------0-----------------0------0-------------|
C------5------5------5-(/)------7------7------7--------|
G----3------3------3--(/)-----5------5------5----------|
D------------------------------------------------------|

                   G (twice)
D-------------------------------------------|
A-------0------0----------------------------|
F-----7------7------7------7-7----7-7---7---|
C---5------5------5------5------5-----5-----|
G-------------------------------------------|
D-------------------------------------------|


//Chorus\\: ("Like soldiers, march on...")
             C                           D
D-----------------------------------------------------------|
A-----------------------------------------------------------|
F-----------------------------------------------------------|
C--------5--------5----5------------7-------7-----7---------|
G---3-3------3-3-----3---------5-5-----5-5-----5------------|
D-----------------------------------------------------------|

            G                              A
D------------------------------------------------------------|
A------------------------------------------------------------|
F--------7--------7-----7------------------------------------|
C---5-5------5-5-----5----------------7-------7-----7--------|
G------------------------------------------------------------|
D-------------------------------5-5------5-5-----5-----------|

             C                      D
D--------------------------------------------------|
A--------------------------------------------------|
F--------------------------------------------------|
C--------5-------5----5---------7------7----7------|
G---3-3-----3-3-----3-------5-5----5-5----5--------|
D--------------------------------------------------|

          G                        G
D---------------------------------------------|
A------0------0--------------0-------0--------|
F----7------7------7-------7-------7-----7----|
C--5------5------5-------5-------5-----5------|
G---------------------------------------------|
D---------------------------------------------|


//Verse\\:
repeat the part before.

Here are 2 riffs you can play as well.

1: Instead of playing the D the first time, you play this:

D-----------------------------|
A------0-----3b+p0------------|
F----2-----------------2------|
C--0------0----------0--------|
G-----------------------------|
D-----------------------------|

2: Instead of playing the last G in the row, you can play this (lil add-on)
D---------------------------------------0----------------|
A------0-------0----------------0------------------------|
F----7-------7-------7--------7------------7------7------|
C--5-------5-------5--------5-------5----------5---------|
G--------------------------------------------------------|
D--------------------------------------------------------|


//Chorus\\:     (now strumming)
          C                           D                      G
D----------------------------------------------------------------------------|
A----------------------------------------------------x-------x------x--------|
F----------------------------------------------------7-------7------7--------|
C-------5------5----5---------7---7-7-7---7---7-7----5--5-5--5--5-5-5--5-----|
G--3-3-----3-3----3-------5-5-----5-5-5---5---5-5----------------------------|
D----------------------------------------------------------------------------|

            G/F#                      C                        D
D----------------------------------------------------------------------------|
A---x-------x-------x--------------------------------------------------------|
F---7-------7-------7--------5-------5-------5-------7--------7--------7-----|
C---4--4-4--4--4-4--4-4------5--5-5--5--5-5--5--5----7--7--7--7--7--7--7--7--|
G----------------------------3--3-3--3--3-3--3--3----5--5--5--5--5--5--5--5--|
D----------------------------------------------------------------------------|

            G
D-----------------------------|
A---x------x-------x----------|
F---7------7-------7----------|
C---5-5-5--5--5-5--5--5---x2--|
G-----------------------------|
D-----------------------------|


//Bridge\\:
     Em   D   C
D----0----2---0-<<--(second--time-3-)-----|
A----0----3---1---------------------------|
F----0----2---0---------------------------|
C----2----0---2---------------------------|   x4!!!
G----2--------3---------------------------|
D----0------------------------------------|

Strumming:
Same as in the 2. Chorus!

!!!At the 4th time you this instead of the C!!!
D---------|
A---8-----|
F---7-----|
C---5-----|
G---------|
D---------|

//Break (Chorus)\\:
--1. time as the 1. Chorus--
               C                           D
D-----------------------------------------------------------|
A-----------------------------------------------------------|
F-----------------------------------------------------------|
C--------5--------5----5------------7-------7-----7---------|
G---3-3------3-3-----3---------5-5-----5-5-----5------------|
D-----------------------------------------------------------|

            G                              A
D------------------------------------------------------------|
A------------------------------------------------------------|
F--------7--------7-----7------------------------------------|
C---5-5------5-5-----5----------------7-------7-----7--------|
G------------------------------------------------------------|
D-------------------------------5-5------5-5-----5-----------|

             C                      D
D--------------------------------------------------|
A--------------------------------------------------|
F--------------------------------------------------|
C--------5-------5----5---------7------7----7------|
G---3-3-----3-3-----3-------5-5----5-5----5--------|
D--------------------------------------------------|


--2. Time as the 2. Chorus--
   C                           D                      G
D----------------------------------------------------------------------------|
A----------------------------------------------------x-------x------x--------|
F----------------------------------------------------7-------7------7--------|
C-------5------5----5---------7---7-7-7---7---7-7----5--5-5--5--5-5-5--5-----|
G--3-3-----3-3----3-------5-5-----5-5-5---5---5-5----------------------------|
D----------------------------------------------------------------------------|

            G/F#                      C                        D
D----------------------------------------------------------------------------|
A---x-------x-------x--------------------------------------------------------|
F---7-------7-------7--------5-------5-------5-------7--------7--------7-----|
C---4--4-4--4--4-4--4-4------5--5-5--5--5-5--5--5----7--7--7--7--7--7--7--7--|
G----------------------------3--3-3--3--3-3--3--3----5--5--5--5--5--5--5--5--|
D----------------------------------------------------------------------------|

            G
D-----------------------------|
A---x------x-------x----------|
F---7------7-------7----------|
C---5-5-5--5--5-5--5--5---x2--|
G-----------------------------|
D-----------------------------|


I Know thats a bit confusing, but heres a map :D

Verse    \
Chorus    \
Verse     /  Usual
Chorus   /

Bridge    Usual

Break     (The always play a break which is the quiet versoin of the chorus-
           This consernes a picking-part and a strumming part)

Outro     (This one comes now!

//Outro\\:
   C  D
D----------|
A----------|
F--5--7----|
C--5--7----| x4  Same strumming as in the Bridge
G--3--5----|
D----------|


End:
The song ends on this tone:
D--------|
A--8-----|
F--7-----|
C--5-----|
G--------|
D--------|
Tap to rate this tab
# A B C D E F G H I J K L M N O P Q R S T U V W X Y Z