Guitaretab - guitar tabs
Song name
# A B C D E F G H I J K L M N O P Q R S T U V W X Y Z

Good Charlotte - Girls And Boys Acoustic tab

Artist: Good Charlotte
Song: Girls&Boys
Album: (The Young and Hopeless)
Tabbed by (interpretation): Necriononguitar

Announcement: This is my own version of this song. its written by me and
              is meant to help starters playing that awesome song acoustic!

Tuning: Standart

CAPO 1 Fret   (if you dont have a capo u can play a half step down)

>>>Scroll down for the chords version<<<

//Intro and Verse\\

G A

Version 1
E---------------------------------|
B---------3----------3------------|
G------0----------------2---------|
D---------------------------------|
A---------------0-----------------|
E---3-----------------------------|

Version 2
E---------------------------------|
B---------0---------2-------------|
G------0---------------2----------|
D---------------------------------| (album version)
A--------------0------------------|
E---3-----------------------------|

or

E---------------------------------|
B---------------------------------|
G----------4----------6-----------|   /= slide up
D-------5----------------7--------|      hit the string(s) slide up into a
A---------------------------------|      higher fret (the fingers are stil on
E---3-----------/5----------------|      the neck) and hit the string on the
                                        next fret again


//Pre-Chorus\\

G A

PALM-MUTE ALL!!  -> put your right hand on the part where the string are ending (sorry 
not english, i dont know the word). its a (white) stick.
The sounds will become quit and muted. (if have to here them

E----------------------------------------|
B----------------------------------------|
G----------------------------------------|
D----5-5-5/7-7-7-7-7---------------------|
A----5-5-5/7-7-7-7-7---------------------|
E----3-3-3/5-5-5-5-5---------------------|
    [   4  ][  4   ]

After a few times:     .=palm muted
E------------------------------------|
B------------------------------------|
G------------------------------------|  crescendo (getting louder)
D---5-5-5-5-5-5-5-5--5-5-5-5-5-------|
A---5-5-5-5-5-5-5-5--5-5-5-5-5-------|
E---3-3-3-3-3-3-3-3--3-3-3-3-3-------|
    . . . . . . . .


//Chorus\\

D A G G

E--------------------3-----------|
B---3--------2-------3-----------|
G---2--x8----2-------0-----------|
D---0--------2-x8----0-x16-------|
A------------0-------2-----------|
E--------------------3-----------|

or

E---2------0------3------------|
B---3------2------3------------|
G---2-x8---2-x8---0------------|
D---0------2------0-x16--------|
A----------0------2------------|
E-----------------3------------|


For intermediate player a little add-on...
E-------------------------3-3-----------------|
B---3-------2-------------3-3-----------------|
G---2-x-8---2-------------0-0-----------------|
D---0-------2-x8-----0-0---------x4----------|
A-----------0--------2-2----------------------|
E--------------------3-3----------------------|


//Bridge\\

A B G      B A G

This part is played by 2 guitars.
At first the 1. guitar

Version 1
E-----------------------------------------|
B-----------------------------------------|
G-----------------------------------------|
D---7--9--5----5-5------9--7--5---5-5-----|
A---7--9--5----5-5------9--7--5---5-5-----|
E---5--7--3----3-3------7--5--3---3-3-----|

Version 2 (intermediate)   x=muted                    put your left hand over
E-----------------------------------------------|      all strings, so you
B-----------------------------------------------|      hear a scratch sound,
G-----------------------------------------------|      to mute your strings.
D---7/9--5---5-5--xx----9/7--5---5-5--xx--------|
A---7/9--5---5-5--xx----9/7--5---5-5--xx--------|
E---5/7--3---3-3--xx----7/5--3---3-3--xx--------|
                                      /\
Hint: Clap twice or play this part here after every time (listen to the song)

[ Tab from: http://www.guitaretab.com/g/good-charlotte/183235.html ]
Guitar 2
   [      8        ][    5   ]
E---5-5-5-5-5-5-5-5--5-5-5-5-5--7-7------|
B----------------------------------------|
G----------------------------------------|
D----------------------------------------|
A----------------------------------------|
E----------------------------------------|

   [      8        ]
E---5-5-5-5-5-5-5-5---5-5-5-5--7-7-7-7--9-9-9-9--10-10-10-10----|
B---------------------------------------------------------------|
G---------------------------------------------------------------|
D---------------------------------------------------------------|
A---------------------------------------------------------------|
E---------------------------------------------------------------|


//Break\\  (kinda...)

D A G G

Version 1
E--------------------------------3-----------|
B---3--3--3--3----2--2--2--2-----3-----------|
G---2--2--2--2----2--2--2--2-----0-----------|
D---0--0--0--0----2--2--2--2-----0--x16------|
A-----------------0--0--0--0-----2-----------|
E--------------------------------3-----------|

Version 2
E-------------------------------------------|
B-------------------------------3-----------|
G--7--7--7--7-------------------0-----------|
D--7--7--7--7----7--7--7--7-----0--x16------|
A--5--5--5--5----7--7--7--7-----2-----------|
E----------------5--5--5--5-----3-----------|


Now as you know how to play the song here are the chords...

(be sure that you know all the part, so you dont have to scroll up at every part)

-----------------------------------------------------------------------------

The Chords


Intro:
G A       G A
G A       G A


Verse:
   G    A      G    A
Educated, with money
     G           A     G     A
He's well dressed, not funny


Pre-Chorus
    G           A      G          A
And not much to say in most conversations
    G             A       G       A
But he'll put the bill in all situations
       G
'Cause he pays for everything


Chorus:
D                      A                   G      G
Girls don't like boys, girls like cars and money
D                  A                      G       G
Boys will laugh at girls when they're not funny


Verse:
G    A    G      A
Paper  or plastic
      G     A        G       A
Don't matter, she'll have it
  G      A    G        A
Vacations and shopping sprees
      G     A          G        A
These are a few of her favorite things


Pre-Chorus:
       G            A              G          A
She'll get what she wants if she's willing to please
G           A           G            A
His type of girl always comes with a fee
G                A           G
Hey now, there's nothing for free


Chorus:
D                      A                   G      G
Girls don't like boys, girls like cars and money
D                  A                      G       G
Boys will laugh at girls when they're not funny


          D                                 A
And these girls like these boys, like these boys like these girls
    G                          G
The girls with the bodies like boys with Ferrari's

D                      A                   G       G
Girls don't like boys, girls like cars and money


Lets go!  (clap)

Bridge:

A B G     B A G   x3

A B G     A  A


Break:
D                      A                   G      G
Girls don't like boys, girls like cars and money
D                  A                      G       G
Boys will laugh at girls when they're not funny


*         D                                 A
And these girls like these boys, like these boys like these girls
    G                          G
The girls with the bodies like boys with Ferrari's

D                      A                   G       G
Girls don't like boys, girls like cars and money


Interlude:

G A x8

Outro:
G            A               G            A
All of these boys (yeah) and all of these girls
G            A            G      A                   x3 (fade out)
Losing their souls in a material world...


*Play the chorus as usual


Thats it, i hope u enjoyd it.

Please mail me or comment :D

Cheers
Related for Girls And Boys Acoustic tab