Song name
# A B C D E F G H I J K L M N O P Q R S T U V W X Y Z

Good Charlotte - Better Run chords

Highlighted       Show chord diagrams
Artist: Good Charlotte (Benji Madden)
Song: Better Run (Cover of "Army Of Me")
Album: Unreleased
Tabbed by: necriononguitar
e-mail: tim.rathgen@gmx.de (im not reading any spammail)

Tuning: Standard    No Capo


A        A
A        A


Little Guitar riffs:
E--------------------------------------------------------------------------|
B--------------------------------------------------------------------------|
G-------6-7-6---------6-7-6-------9---7-6-7-6-----------9---7-6-7-6--------|
D--7-9-----------7-9-----------7---------------7-----7---------------7-----|
A--------------------------------------------------------------------------|
E--------------------------------------------------------------------------|


       A                            A
If you find that your life would be better off without me,
       E                           E
If you run at full speed and it feels good to be free,
       Bm                               Bm
If you know it in your soul though it's hard to let it go,
           A
you better run,
           E
you better run.


       A                                    A
If you lift it from the ground, know you're never coming down,
E                                     E
Babe, if you're a boxer and you can't stand another round,
   Bm                            Bm
So free to make a sound and your heart began to pound.
           A
you better run,
           E
you better run.


        D                  D
But the one thing that I ask,
         F#m              F#m
that you live without reserve
         Bm                  Bm                  E          
(hit once)
that you find out what you need, show what you deserve.


        A                        A
All the time that we had, do you think it was a waste?
    E                        E
For what good's a memory without some sort of taste?
    Bm                        Bm
and does the value rise if it cannot be replaced?
           A
you better run,
           E
you better run.


        D                  D
But the one thing that I ask,
         F#m              F#m
that you live without reserve
         Bm                  Bm                  E          E
that you find out what you need, show what you deserve.


F#m          D           A            A
Aaaaaaaaahhhhhhhhh

        F#m               D          A          A
But the one thing that I ask,
         F#m              D          A          A
that you live without reserve,
      F#m               D         A           A
and I know it hurts for now,
            F#m              D         A          A
but there's always something learned.
F#m               D             A                 A
    So don't turn around, don't lose your footing now
F#m       D            A           A
    don't lose your nerve.
      F#m      E        A        D
Gonna find out what you need,
      F#m       E     A        A        A   
     A (hit once)
gonna show what you deserve.


Outro Riff:
E-------------------------------------------------------|
B----------------------10---8-7-8-7---------------------|
G--------6-7-6----6------------------9---7-6-7-6--------|
D---7-9-------------------------------------------7-----|
A-------------------------------------------------------|
E-------------------------------------------------------|

Thats it!  I hope u enjoyed it and please rate and comment.

Cheers (btw, more GC tabs at my profile)
Tap to rate this tab
# A B C D E F G H I J K L M N O P Q R S T U V W X Y Z