Song name
# A B C D E F G H I J K L M N O P Q R S T U V W X Y Z

Good Charlotte - Day That I Die Acoustic tab

Hey guys, this song is simple and I think the acoustic version way better...

Tuning - Half Step Down
               Acoustic #1 - eb,Bb,Gb,Db,Ab,Eb  (D#,A#,F#,C#,G#,D#)
               Acoustic #2 - eb,Bb,Gb,Db,Ab,Eb  (D#,A#,F#,C#,G#,D#)


The intro and solo in the acoustic version are the same thing.

Guitar 1
eb------------------------------------------------|
Bb------------------------------------------------|
Gb------------------------------------------------|
Db------------------------------------------------|
Ab---4~~--4-2-4-2~--2---5-4-2-0-------------------|
Eb-------------------------------2-0--0-----------|

eb------------------------------------------------|
Bb------------------------------------------------|
Gb------------------------------------------------|
Db-----------------------------7-----7----7--9-7~-|
Ab---4~~--4-2-4-5-4-2-0-----7h9---7h9--7h9--------|
Eb------------------------------------------------|

-----------------------------------------------------------------------------

The chords are basically just A, E, D and Bm. Which are all laid out below.

Guitar 2
    A      E      D      Bm
eb--0------0------2------2------------------------|
Bb--2------0------3------3------------------------|
Gb--2------1------2------4------------------------|
Db--2------2------0------4------------------------|
Ab--0------2-------------2------------------------|
Eb---------0--------------------------------------|

Verse 1: All verses are the same, and i know listening to the third line and
 the song, it sounds different. no other matching chord, or if you find it,
we'd appreciate that. 1x


A                  E                   D                       A
One day I woke up, I woke up knowing, today is the day I will die.
A                    E                       D                 A
Cashdog was barkin, went to the park and, enjoyed it one last time.
A                    E                       D                 A
I called my mother, told her I loved her and begged her not to cry.
A                    E                       D                 A
I wrote a letter, that said I'd miss her, and I signed that goodbye...

Pre-chorus 1: After the second D chord, hit it once then stop for singing.

E                                 D
You know the happiest day of my life
E                                D *stop!
I swear the happiest day of my life - Is the day that I die.

Chorus 1:      1x

A                  E
Can you feel the cold tonight?
Bm              D
It sets in but it's all right.
A                    E
Darkness falls I'm letting go.
Bm            D
All alone but I feel fine...

-----------------------------------------------------------------------------

Verse 2:       1x

Bridge:        1x

Bm             Bm
Summer nights, drunkin fights
D                 D
Mistakes we made, did we live it right?


Pre-chorus 2:  1x
Chorus 2:      1x


Solo: Guitar 1 plays the intro as the solo and Guitar 2 plays the verse chords.        1x


Guitar 1
eb------------------------------------------------|
Bb------------------------------------------------|
Gb------------------------------------------------|
Db------------------------------------------------|
Ab---4~~--4-2-4-2~--2---5-4-2-0-------------------|
Eb-------------------------------2-0--0-----------|

eb------------------------------------------------|
Bb------------------------------------------------|
Gb------------------------------------------------|
Db-----------------------------7-----7----7--9-7~-|
Ab---4~~--4-2-4-5-4-2-0-----7h9---7h9--7h9--------|
Eb------------------------------------------------|

Guitar 2
A,E,D,A       2X

-----------------------------------------------------------------------------

Pre-chorus 3: 1x
Chorus 3:     1x

Ending:

A             E                        D                           A
Did I live it right? I hope I lived it right? I know I lived it right.
A             E                        D                           A
Did I live it right? I hope I lived it right? I know I lived it right...

Done!!! Love that song. Thanks and enjoy.
-Macheeoo
Tap to rate this tab
 
# A B C D E F G H I J K L M N O P Q R S T U V W X Y Z