Song name
# A B C D E F G H I J K L M N O P Q R S T U V W X Y Z

Good Charlotte - Foolish tab

Good Charlotte  -  Foolish
Tuning: HALF STEP DOWN!! (:



credits for chords go to Necriononguitar
http://www.ultimate-guitar.com/tabs/g/good_charlotte/foolish_tab.htm



i just correct some things (: and add??? some thing xD
sorry for my english (;

----------


guitar I
Intro & Outro
   C                            C
E|------------0---------------|-------------0--------------------|
B|------------1---------------|-------------1--------------------|
G|------0-----------0-----0---|------0-------------0------0------|
D|----------------------------|----------------------------------|
A|---3-----3-----------3------|---3-----3--------------3---------|
E|----------------------------|----------------------------------|
   C/B*                         C/B*
E|------------3---------------|-------------3--------------------|
B|------------1---------------|-------------1--------------------|
G|------0-----------0-----0---|------0-------------0------0------|
D|----------------------------|----------------------------------|
A|---2-----2-----------2------|---2-----2--------------2---------|
E|----------------------------|----------------------------------|
   F                            G
E|------------1---------------|-------------3--------------------|
B|------------1---------------|-------------3--------------------|
G|----------------------------|------0-------------0------0------|
D|------3-----------3-----3---|----------------------------------|
A|----------------------------|----------------------------------|
E|---1-----1-----------1------|---3-----3-------------3----------|
   C                            C
E|------------0---------------|-------------0--------------------|
B|------------1---------------|-------------1--------------------|
G|------0-----------0-----0---|------0-------------0------0------|
D|----------------------------|----------------------------------|
A|---3-----3-----------3------|---3-----3--------------3---------|
E|----------------------------|----------------------------------|


Guitar II 
Intro
E-----------------------------------------------------------------------|
B-----------------------------------------------------------------------|
G------------------------------------------------------7--5----7--5-----|
D--------------------2----5--5~----5-7---5--------5---------------------|
A--3~------3----5-------------------------------------------------------|
E-----------------------------------------------------------------------|

E-------------------------------------|
B-------------------------------------|
G-------------------------------------|
D---7--5----7--5----------------------|
A--------------------7-5-3~-----------|
E-------------------------------------|

Guitar II
Outro
E--------------------------------------------------------------|
B----------------------------------------8---------------------|
G----------------------------------5/7------7\5------5---------|
D--------------------5-----5/7-5------------------7------(5)---|
A--(3)---7--5---7----------------------------------------------|
E--------------------------------------------------------------|

E----------------------------------------------------|
B----------------------------------------------------|
G-------------------7---5----------------------------|
D------5---7---5-------------7---5-------------------|
A---7---------------------------------7--5----3~-----|
E----------------------------------------------------|



Intro
C    C/B*    F  G    C

Verse
C                                C/B*
 Some people will tell you, it's foolish to believe
     F                  G                C
That someone else could feel the way you do
C                          C/B*
 Well people might say, it seems a little strange
   F             G              C
To hope so secretly the way you do

Pre-Chorus
Dm                            G
  But I don't see the harm in love
    Dm                     G
No, I don't see no harm at all

Chorus  
   F           G
To fall foolishly
   F          G
To hurt secretly
     Am        G          F         Dm
That someone else could feel this way
    F   G       C
And fall foolishly

Verse
C                       C/B*
 Been dying to tell you not to lose your faith
        F                    G                C
(Cuz) I swear that love will one day find its way
  C                                    C/B*
Into your heart   Into your mind     Into your life      You might find
F            G               C
Someone else out to play you on


Pre-Chorus
   Dm                      G
So I don't see the harm in love
    Dm                     G
No, I don't see no harm at all

Chorus
   F           G
To fall foolishly
   F          G
To hurt secretly
     Am        G          F         Dm
That someone else could feel this way
    F   G       C
And fall foolishly
        F   G       C
Oh, and fall foolishly
        F          G
Just to fall... to fall foolishly

Outro
C    C/B*    F  G    C


Tap to rate this tab
# A B C D E F G H I J K L M N O P Q R S T U V W X Y Z