Song name
# A B C D E F G H I J K L M N O P Q R S T U V W X Y Z

Good Charlotte - Lifestyles Of The Rich & Famous tab

                        
Song: Lifestyles of the Rich and Famous
Band: Good Charlotte
Album: The Young and The Hopeless

     I am proud to say this is my first tab ever and I am almost 100% it's all correct.
                                  NOT TO BLAME

         DO NOT ATTEMPT TO COPY THIS TAB OF YOU WILL BE FINED!!!!!!!!!



                        Intro:      
--------------------------------------------------------------
--------------------------------------------------------------
--------------------------------------------------------------   DRUMS & FEEDBACK
--------------------------------------------------------------
--------------------------------------------------------------
--------------------------------------------------------------



                        Verses
--------------------------------------------------------------
--------------------------------------------------------------
------6-6-------8-8-------11-11-------6-6---------------------   repeat x2
------6-6-------8-8-------11-11-------6-6---------------------
------4-4-------6-6-------9--9--------4-4---------------------   (3rd string opt.)
-------------------------------------------------------------- 


                     (If they would spend a day or two...)
--------------------------------------------------------------  
--------------------------------------------------------------
-------------------6------------------------------------------  (find right strumming)
-----8------4------6-----6------------------------------------
-----8------4------4-----6------------------------------------
-----6------2------------4------------------------------------




                        Chorus:   (Lifestyles, of the rich and the famous...)
--------------------------------------------------------------(find the right strumming)
--------------------------------------------------------------  
----6--------8---------11--------6----------------------------
----6--------8---------11--------6----------------------------  (3rd string opt.)
----4--------6---------9---------4----------------------------
--------------------------------------------------------------



          (sirens, drums and bass part)
--------------------------------------------------------------
--------------------------------------------------------------
--------------------------------------------------------------  (wait......)
--------------------------------------------------------------
--------------------------------------------------------------
--------------------------------------------------------------



                       Grunge Chorus
Chorus:   (Lifestyles, of the rich and the famous...)
--------------------------------------------------------------(find the right strumming)
--------------------------------------------------------------  
----6--------8---------11--------6----------------------------
----6--------8---------11--------6----------------------------  (should use 3rd string) 
----4--------6---------9---------4----------------------------
--------------------------------------------------------------



    The end.......
 Hope you love this song and band as much as I do. My favorite bands are Good Charlotte, Rancid, Blink 182, Boxcar Racer, The Offspring, New Found Glory and more.... you should check them out for urself!!!!           
Tap to rate this tab
# A B C D E F G H I J K L M N O P Q R S T U V W X Y Z