Song name
# A B C D E F G H I J K L M N O P Q R S T U V W X Y Z

Good Charlotte - Little Things tab

----------------------------------------------------------------------------
			     LITTLE THINGS - Good Charlotte
----------------------------------------------------------------------------
Tabbed by: Cameron Bond
Email: bond_178@hotmail.com

Now i know that this is all right it is 100% percent accurate unless i made a
mistake entering it in but other than that it is perfect... exactly how to be
played.. i even took my time to put it into correct spots instead of having a
massive list at the bottom saying this one so many times and this one so many
times... So please rate it good

Tuning: Standard Tuning

Intro:                                                                   x4
e|-------------------------------------------------------------------------|
B|-------------------------------------------------------------------------|
G|-----66666---------------------------------------------------------------|
D|-----66666---666--5----44444----101010---8-------------------------------|
A|-----44444---666--5----44444----101010---8-------------------------------|
E|-------------444--3----22222----8 8 8 ---6-------------------------------|

The Bridge and Verse is just Bass but I'll put it in anyways
Bridge/Verse:                                                            x6
e|-------------------------------------------------------------------------|
B|-------------------------------------------------------------------------|
G|-------------------------------------------------------------------------|
D|-------------------------------------------------------------------------|
A|-----44444---------------------------------------------------------------|
E|-------------444--3----22222----888---6----------------------------------|

Back to intro                                                            x2
e|-------------------------------------------------------------------------|
B|-------------------------------------------------------------------------|
G|-----66666---------------------------------------------------------------|
D|-----66666---666--5----44444----101010---8-------------------------------|
A|-----44444---666--5----44444----101010---8-------------------------------|
E|-------------444--3----22222----8 8 8 ---6-------------------------------|

Chorus:                                                                  x4
e|-------------------------------------------------------------------------|
B|-------------------------------------------------------------------------|
G|---77777777--------------------------------------------------------------|
D|---77777777---77777777---55555555---88888888-----------------------------|
A|---55555555---77777777---55555555---88888888-----------------------------|
E|--------------55555555---33333333---66666666-----------------------------|

Next bit:
e|-------------------------------------------------------------------------|
B|-------------------------------------------------------------------------|
G|-------------------------------------------------------------------------|
D|---4-4-4--7-7-7---4-4-4--7-7-7---4-4-4--7-7-7---4-4-4--78910-------------|
A|---4-4-4--7-7-7---4-4-4--7-7-7---4-4-4--7-7-7---4-4-4--78910-------------|
E|---2-2-2--5-5-5---2-2-2--5-5-5---2-2-2--5-5-5---2-2-2--5678 -------------|

Then:                                                                    x2
e|-------------------------------------------------------------------------|
B|-------------------------------------------------------------------------|
G|-----66666---------------------------------------------------------------|
D|-----66666---666--5----44444----101010---8-------------------------------|
A|-----44444---666--5----44444----101010---8-------------------------------|
E|-------------444--3----22222----8 8 8 ---6-------------------------------|

Verse:                                                                   x4
e|-------------------------------------------------------------------------|
B|-------------------------------------------------------------------------|
G|-------------------------------------------------------------------------|
D|-------------------------------------------------------------------------|
A|-----44444---------------------------------------------------------------|
E|-------------444--3----22222----888---6----------------------------------|

e|-------------------------------------------------------------------------|
B|-------------------------------------------------------------------------|
G|-----66666---------------------------------------------------------------|
D|-----66666---666--5----44444----101010---8-------------------------------|
A|-----44444---666--5----44444----101010---8-------------------------------|
E|-------------444--3----22222----8 8 8 ---6-------------------------------|

e|-------------------------------------------------------------------------|
B|-------------------------------------------------------------------------|
G|-----66666---------------------------------------------------------------|
D|-----66666---666--5----44444444--1010101010101010------------------------|
A|-----44444---666--5----44444444--1010101010101010------------------------|
E|-------------444--3----22222222--8 8 8 8 8 8 8 8 ------------------------|

Chorus:                                                                  x4
e|-------------------------------------------------------------------------|
B|-------------------------------------------------------------------------|
G|---77777777--------------------------------------------------------------|
D|---77777777---77777777---55555555---88888888-----------------------------|
A|---55555555---77777777---55555555---88888888-----------------------------|
E|--------------55555555---33333333---66666666-----------------------------|

e|-------------------------------------------------------------------------|
B|-------------------------------------------------------------------------|
G|-------------------------------------------------------------------------|
D|--4-4-4--7-7-7---4-4-4--7-7-7---4-4-4--7-7-7---4-4-4--7891011121314151617|
A|--4-4-4--7-7-7---4-4-4--7-7-7---4-4-4--7-7-7---4-4-4--7891011121314151617|
E|--2-2-2--5-5-5---2-2-2--5-5-5---2-2-2--5-5-5---2-2-2--5678 9 101112131415|

Outro:                                                   Repeat until fade 
e|-------------------------------------------------------------------------|
B|-------------------------------------------------------------------------|
G|---77777777--------------------------------------------------------------|
D|---77777777---77777777---55555555---88888888-----------------------------|
A|---55555555---77777777---55555555---88888888-----------------------------|
E|--------------55555555---33333333---66666666-----------------------------|

Bass and Drums finish song...


| /  slide up
| \  slide down
| h  hammer-on
| p  pull-off
| ~  vibrato
| +  harmonic
| x  Mute note
============================================================================
Tap to rate this tab
# A B C D E F G H I J K L M N O P Q R S T U V W X Y Z