Guitaretab - guitar tabs
Song name
# A B C D E F G H I J K L M N O P Q R S T U V W X Y Z

Good Charlotte - Anthem tab

--------------------------------------------------------------------------------
                          The Anthem - Good charloote
--------------------------------------------------------------------------------

Artist: Good Charlotte
Album: Young And The Hopeless
Song: The Anthem(written by Benji and Joel)
Tuning: Dropped D Tunning, Low to high DADGBe
Tabbed by : Zero is great man

Guitar 1(Billy): G1: Plays rhythem
Guitar 2(Benji): G2: plays lead

G1:Intro/Breakdown: (Played w/Digital delay): "You, don't want to be.."
e|-----------------------------------|
B|-----------------------------------|
G|-----------------------------------|
D|-----------------------------------|
A|-0-0--7-7--5-5--x-x--0-0--7-7--5-5-|
D|-0-0--7-7--5-5--x-x--0-0--7-7--5-5-|

Guitar 1: Intro part 1:
e|---------------------------------------------------------------------|
B|---------------------------------------------------------------------|
G|-7-7-7-7-7-7---------------------------------------------------------|
D|-7-7-7-7-7-7----------7-7-7-7-7-7---------------5-5-5-5-5-5----------|
A|-5-5-5-5-5-5----------7-7-7-7-7-7---------------5-5-5-5-5-5----------|
D|----------------------7-7-7-7-7-7---------------5-5-5-5-5-5----------|

Guitar 2: Intro part 1:
e|---------------------------------------------------------------------|
B|---------------------------------------------------------------------|
G|------------7-7-9-11----------------12-12-11-9---------------6-6-7-9-|
D|------------x-x-x-x-----------------x--x--x--x---------------x-x-x-x-|
A|------------5-5-7-9-----------------10-10-9--7---------------4-4-5-7-|
D|---------------------------------------------------------------------|

Guitar 1:Intro part 2:
e|----------------------------|
B|----------------------------|
G|----------------------------|
D|-7-7-7-7-7-7----------------|
A|-7-7-7-7-7-7----------------|
D|-7-7-7-7-7-7----------------|

Guitar 2:Intro part 2:
e|----------------------------|
B|----------------------------|
G|--------------9-9-7-7-6-6-6-|
D|--------------x-x-x-x-x-x-x-|
A|--------------7-7-5-5-4-4-4-|
D|----------------------------|

Verse:"It's a new day, but it feels old to me." 
e|------------------------------------------------------------------|
B|------------------------------------------------------------------|
G|------------------------------------------------------------------|
D|-------------------7-7-7-7-------------------------7------5-------|
A|-0-0-0-0--7-7-7-7--5-5-5-5--5-5-5-5-5-5-5-0-0-0-0--7-(x8)-5-(x16)-|
D|-0-0-0-0--7-7-7-7-----------5-5-5-5-5-5-5-0-0-0-0--7------5-------|
 |-------------------p.m---------------------------|

Pre-Chorus:Both guitars: "I don't really...,"
e|-----------------------------------------------------|
B|-----------------------------------------------------|
G|-----------------------------------------------------|
D|-9-------5--------12---------9-------5-------7-------|
A|-9-(8x)--5--(8x)--12--(16x)--9-(8x)--5-(8x)--7-(16x)-|
D|-9-------5--------12---------9-------5-------7-------|

Chorus: "You, don't want to be just like you"
e|----------------------------------------------------------------------------|
B|----------------------------------------------------------------------------|
G|--------------------7-7------------------------------------------7-7--------|
D|-0-0--7-7--5-5-7-7--7-7--7-7--5-5--8-8--7-7--0-0--7-7--5-5--7-7--7-7--7-7-5-|
A|-0-0--7-7--5-5-7-7--5-5--7-7--5-5--8-8--7-7--0-0--7-7--5-5--7-7--5-5--7-7-5-|
D|-0-0--7-7--5-5-7-7-------7-7--5-5--8-8--7-7--0-0--7-7--5-5--7-7-------7-7-5-|

Solo part 1: Guitar 2
e|----------------------------------------------------------|
B|----------------------------------------------------------|
G|-11-11-11-9p-----9-9-9-9-9--11-11-11-9p-11-12-12-12-11-9p-|
D|-------------12h------------------------------------------|
A|----------------------------------------------------------|
D|----------------------------------------------------------|

Solo part 2:
e|------------------------------------------------------------------|
B|------------------------------------------------------------------|
G|-11-11-11-9p-11-9-9-9-11-9p---7-7--7-9-9--9-11-11--11-11-12-11-\0-|
D|------------------------------x-x--x-x-x--x-x--x---x--x--x--x--\x-|
A|------------------------------5-5--5-7-7--7-9--9---9--9--10-9--\0-|
D|------------------------------------------------------------------|

(During solo, guitar 1 plays chorus).

Breakdown: "You don't want to be just like you..."

Pick scrap 

Bridge: 
"This is the Anthem!..."  "Another loser anthem.."
e|-----------------|     e|--------------------|
B|-----------------|     B|--------------------|
G|-7-7-7-----------|     G|--------------------|
D|-7-7-7-7-5-5-5-7-|(x2) D|-0-0--7-7--5-5--7-7-|(x3)
A|-5-5-5-7-5-5-5-7-|     A|-0-0--7-7--5-5--7-7-|
D|-------7-5-5-5-7-|     D|-0-0--7-7--5-5--7-7-|         

Outro: Both Guitars: (end with this)
e|------------------|
B|------------------|
G|-7-7-7----------7-|
D|-7-7-7-7-7--5-7-7-|
A|-5-5-5-7-7--5-7-5-|
D|-------7-7--5-7---|

| p.m = Palm mute
| / = slide up
| \ = Slide down
| h = Hammer off
| p = pull off

There you have it, neatly tabbed and seperated for better practacing, and your convinence.  Peace out.
================================================================================
[ Tab from: http://www.guitaretab.com/g/good-charlotte/24636.html ]
Related for Anthem tab
Advertisement will be closed in 10 seconds