Guitaretab - guitar tabs
Song name
# A B C D E F G H I J K L M N O P Q R S T U V W X Y Z

Good Charlotte - The Anthem tab

Group: Good Charlotte
Song: The Anthem
Intro
e|----------------------------|
B|----------------------------|
G|-66-----------66------------|
D|-66-66-44-66--66-66-444444--|
A|-44-66-44-66--44-66-444444--|
E|----44-22-44-----44-222222--|
Riff 1
e|-------------------------------------------------------|
B|-------------------------------------------------------|
G|-6-66-666----------------------------------------------|
D|-6-66-666------6-66-6---------4-44--------6-66---------|
A|-4-44-444-6-8--6-66-6-99-8-6--4-44-44-6-8-6-66-88-6-4--|
E|---------------4-44-4---------2-22--------4-44---------|
Verse
e|--------------------------------------------------------------------|
B|--------------------------------------------------------------------|
G|-666----------------------------666---------------------------------|
D|-666--666-666--444--666-66-66---666--666-666---44444444-66666666-X2-|
A|-444--666-666--444--666-66-66---444--666-666---44444444-66666666----|
E|------444-444--222--444-44-44--------444-444---22222222-44444444----|
Pre Chorus
e|------------------------------------------------------------------------|
B|------------------------------------------------------------------------|
G|-33333333----------6666666666666666-33333333----------------------------|
D|-33333333-44444444-6666666666666666-33333333-44444444-6666666666666666--|
A|-11111111-44444444-4444444444444444-11111111-44444444-6666666666666666--|
E|----------22222222---------------------------22222224-4444444444444444--|
Chorus
e|----------------------------------------------|
B|----------------------------------------------|
G|-6-----------6-----------6-----------6--------|
D|-6-66-44-66--6-66-44-66--6-66-44-66--6-66-4---|
A|-4-66-44-66--4-66-44-66--4-66-44-66--4-66-4---|
E|---44-22-44----44-22-44----44-22-44----44-2---|
Solo
e|----------------------------------------------------------------------------------|
B|----------------------------------------------------------------------------------|
G|----------------------------------------------------------------------------------|
D|----------------------------------------------------------------------------------|
A|-8-8-8-6-8-6--8-8-8-6-8-9-9-9-8-6-4--8-8-8-6-8-6-6h8-6-4--44-4-66-6-888-8h9-8h9-8-|
E|----------------------------------------------------------------------------------|
Bridge / Post Chorus
e|--------------|
B|--------------|
G|-66-----------|
D|-66-66-44-66--|
A|-44-66-44-66--|
E|----44-22-44--|
End
|--------|
|--------|
|-----6--|
|-4-6-6--|
|-4-6-4--|
|-2-4----|
Intro
Riff 1
Verse
Pre Chorus
Chorus
Riff 1
Verse
Pre Chorus
Chorus
Solo
Bridge
Chorus
End
[ Tab from: http://www.guitaretab.com/g/good-charlotte/24654.html ]
Related for The Anthem tab
Advertisement will be closed in 10 seconds