Song name
# A B C D E F G H I J K L M N O P Q R S T U V W X Y Z

Good Charlotte - Waldorfworldwide tab

This is a really good song but it is very hard to find a good tab for it so I did one myself. Here it is.

Standard E tuning
Listen to CD for timing

Intro part 1: (2x) (Clean)
Only play until first 8 on the B string the second time
E|--------------------------------------------------
B|-------11--------10---------8------------10-------
G|----10--------10----------8---8---8---10----------
D|--8-------x-x-------x-x-8-------8---8-------x-x---
A|--------------------------------------------------
E|--------------------------------------------------

Intro part 2: (2x) (Distorted)
First 4 chords are played only the first time, Last chord is played only the last time, Let last note ring
E|----------------------------------------------------------------
B|----------------------------------------------------------------
G|--------------------------10-10-x-x-8-8-8-x-x-x-x-10-10-x-x-----
D|--8-8--8-8--8-8-8-x-x-x-x-10-10-x-x-8-8-8-x-x-x-x-8--8--x-x-8---
A|--8-8--8-8--8-8-8-x-x-x-x-8--8--x-x-6-6-6-x-x-x-x-8--8--x-x-8---
E|--6-6--6-6--6-6-6-x-x-x-x-----------------------------------6---

Verse 1: (Clean)
Use a Wah Pedal if you have one
E|-------------------------------
B|-------------------------------
G|--10-10--12-12--10-10--12-12---
D|--10-10--10-10--8--8---10-10---
A|-------------------------------
E|------------------------------- 

Chorus: (Distorted)
E|--------------------------------------------
B|--------------------------------------------
G|----------10-10-10-10-8-8-8-8-10-10-10-10---
D|--8-8-8-8-10-10-10-10-8-8-8-8-10-10-10-10---
A|--8-8-8-8-8--8--8--8--6-6-6-6-8--8--8--8----
E|--6-6-6-6-----------------------------------

Verse 2: (2x) (Clean)
Only play until fourth 10 on G string the second time, then play the verse 1 pattern (with a wah pedal)
E|---------------------------------------------
B|-------11---------10--------8--------10------
G|----10----10---10----10---8---8---10----10---
D|--8----------x----------8-------x------------
A|---------------------------------------------
E|---------------------------------------------

Bridge: (3x) (Distorted)
On the third time only play until the fifth 7-9-9 chord, then slide down the neck, and go into the chorus
E|--------------------------------------------------------------------
B|--------------------------------------------------------------------
G|--7-7-7-7-7-7-7-7-9-9-9-9-9-9-9-9-5-5-5-5-3-3-3-3-2-2-2-2-2-2-2-2---
D|--7-7-7-7-7-7-7-7-9-9-9-9-9-9-9-9-5-5-5-5-3-3-3-3-2-2-2-2-2-2-2-2---
A|--5-5-5-5-5-5-5-5-7-7-7-7-7-7-7-7-3-3-3-3-1-1-1-1-0-0-0-0-0-0-0-0---
E|--------------------------------------------------------------------

Outro: (Distorted)
Last chord is clean, Rake last chord
E|------------------------------------------------
B|--------------------------------------------8---
G|--------------------------------------------8---
D|--8--8-8-8-8-8--8--8-8-8-8-8--8--8-8-8-8-8--6---
A|--8--8-8-8-8-8--8--8-8-8-8-8--8--8-8-8-8-8------
E|--6--6-6-6-6-6--6--6-6-6-6-6--6--6-6-6-6-6------
Tap to rate this tab
# A B C D E F G H I J K L M N O P Q R S T U V W X Y Z