Song name
# A B C D E F G H I J K L M N O P Q R S T U V W X Y Z

Good Charlotte - Standing Ovation tab

"Standing Ovation" by Good Charlotte from their album "Cardiology".

Played it a couple of times with the bass and it sounded right.


Legend:
b - bend
hb - half bend
hbr - half bend release


[INTRO]

LEAD GUITAR
E||---------------------------------------------------------------------|
B||---------------------------------------------------------------------|
G||--2/3-------------------------------------------6--------------------|
D||-------6--4-----4-----------4---6--4--6b(hold)-----6/8--6--4---------|
A||-------------6-----6--4--6-------------------------------------------|
E||---------------------------------------------------------------------|

E||------------------------------------------------------|
B||--2/3-------------------------------------------------|
G||-------6--4-----4-----------4---6--4--6hbr------------|
D||-------------6-----6--4--6----------------------------|
A||------------------------------------------------------|
E||------------------------------------------------------|

RHYTHM PROGRESSION
E||--------------------|
B||--------------------|
G||-----------4---6----|
D||---4---3---4---6----|
A||---2---4---2---4----|
E||---2---1------------|  (x2)




[VERSE]

RHYTHM PROGRESSION
E||-------------|
B||-------------|
G||---4----6----|
D||---4----6----|
A||---2----4----|
E||-------------|
      B5  C#5
       

       B5                       C#5
As I start to make my way back home 

              B5                                    C#5  
Through the crowded streets where the people come and go

         B5                             C#5
All the faces that I see, they seem to show

            B5          C#5
A standing ovation, for you

            B5          C#5
A standing ovation, for you




[CHORUS]

RHYTHM PROGRESSION
E||--------------------|
B||--------------------|
G||-------6---4---6----|
D||---4---6---4---6----|
A||---2---4---2---4----|
E||---2----------------|
     F#5 C#5  B5 C#5


       F#5                           C#5
We're alive now, let's just take our time now

                     B5                            
Let's just make the most of every day we have 

    C#5
the most of every moment


       F#5                            C#5
We're alive now, let's not waste our time now

                     B5         
Let's just make the most of every breath we take 

    C#5                          B5
the most of every second we're alive




[INTERLUDE]

LEAD: Play the Intro


RHYTHM
B5       C#5              B5
Ohh ohh ohhh, coz we're alive

         C#5
Ohh ohh ohhh




[VERSE II] - The same as the 1st Verse




[CHORUS] - Same except last line

    C#5                         G#5
the most of every second we're alive




[BRIDGE]
RHYTHM PROGRESSION
E||--------------------|
B||--------------------|
G||-------6------------|
D||---6---6---4---4----|
A||---4---4---4---2----|
E||---4-------2---2----|
     G#5 C#5 F#5 F#5

G#5       C#5       F#5
Can't you see, the world is on their feet for you and me 

           G#5               C#5
And it's alright, you've got me 

    F#5
Coz even when I'm gone, I'll never leave

   G#5                     C#5
So go on, and catch your dreams




[CHORUS] - Same




[OUTRO VERSE] - Same
Tap to rate this tab
 
# A B C D E F G H I J K L M N O P Q R S T U V W X Y Z