Song name
# A B C D E F G H I J K L M N O P Q R S T U V W X Y Z

Good Charlotte - Festival Song tab

This is Festival Song by good charlotte. 

Guitar 1:                               6X
|33-22-22------------33-22-22-----------|
|33-33-33------------33-33-33-----------|
|22-22-22-222--------22-22-22-222-------|
|---------222-5-555-----------222-5-555-|
|---------000-5-555-----------000-5-555-|
|-------------3-333---------------3-333-|

|33-22-22----------|
|33-33-33----------|
|22-22-22-22222222-|
|---------22222222-|
|---------00000000-|
|------------------|

|--------------------------------------------------------------------|
|--------------------------------------------------------------------|
|77777777----------------------------77777777-------------------7----|
|77777777-77777777-55555555-77777777-77777777-77777777-99999999-7--7-|
|55555555-77777777-55555555-77777777-55555555-77777777-99999999-5--7-|
|---------55555555-33333333-55555555----------55555555-77777777----5-|

|33-22-22------------33-22-22-----------|
|33-33-33------------33-33-33-----------|
|22-22-22-222--------22-22-22-222-------|
|---------222-5-555-----------222-5-555-|
|---------000-5-555-----------000-5-555-|
|-------------3-333---------------3-333-|


Bass Line 0:58-1:10

|-0-2----------------------------------------------------------|
|3-------------------------------------------------------------|
|-----77777777-----------77777777-----------77777777-----------|
|-----77777777-777-55555-77777777-777-55555-77777777-777-55555-|
|-----55555555-777-55555-55555555-777-55555-55555555-777-55555-|
|--------------555-33333----------555-33333----------555-33333-|
      PM++++++++++++++++++++++++++++++++++++++++++++++++++++++

|--------------------------|
|--------------------------|
|77777777------------------|
|77777777-7777777777777777-|
|55555555-7777777777777777-|
|---------5555555555555555-|
PM++++++++++++++++++++

|--------------------------------------------------------------------|
|--------------------------------------------------------------------|
|77777777----------------------------77777777------------------------|
|77777777-77777777-55555555-77777777-77777777-77777777-99999999/12-7~|
|55555555-77777777-55555555-77777777-55555555-77777777-99999999/12-7~|
|---------55555555-33333333-55555555----------55555555-77777777/10-5~|
                                  3x  
|---------------------------------|
|---------------------------------|
|-7-7-7-7-------------------------|
|-7-7-7-7-7-7-7-7-5-5-5-5-7-7-7-7-|
|-5-5-5-5-7-7-7-7-5-5-5-5-7-7-7-7-|
|---------5-5-5-5-3-3-3-3-5-5-5-5-|

|---------------------------------------------|
|---------------------------------------------|
|77777777-------------------------------------|
|77777777-77777777-555555555-7777777777777777-|
|55555555-77777777-555555555-7777777777777777-|
|---------55555555-333333333-5555555555555555-|
PM+++++++++++++++++++++++++++++++++++++++++++

|--------------------------------|
|--------------------------------|
|7~--------------7~----------7---|
|7~--7~--5~--7~--7~--7~--9~--7-7-|
|5~--7~--5~--7~--5~--7~--9~--5-7-|
|----5~--3~--5~------5~--7~----5-|
Flange----------------------|
                                                                  2x
|-------------------------------------------------------------------|
|-------------------------------------------------------------------|
|77777777----------------------------77777777-------------------7---|
|77777777-77777777-55555555-77777777-77777777-77777777-99999999-7-7-|
|55555555-77777777-55555555-77777777-55555555-77777777-99999999-5-7-|
|---------55555555-33333333-55555555----------55555555-77777777---5-|

|--------------|
|--------------|
|7----7----7---|
|7-7--7-7--7-5~|
|5-7--5-7--5-5~|
|--5----5----3~|

      ==============================================================
Guitar 2:
Dont play first time of intro and on the 2nd time listen to come in:
|12*---------------------|8x
|------------------------|
|----777777777-----------|
|----777777777-777-55555-|
|----555555555-777-55555-|
|--------------555-33333-|

After this part play the same part as 1st guitar

Bass line

 1:10   1:16  1:24 
|-0-2~~~-0-2~~~19*-|
|3------3----------|
|------------------|
|------------------|
|------------------|
|------------------|

Listen for when to play:
|7----7----7----7----7----7----7----7--|
|-7~---7~---7~---7~---7~---7~---7~---7~|
|--------------------------------------|
|--------------------------------------|
|--------------------------------------|
|--------------------------------------|

|12*-|
|----|
|----|
|----|
|----|
|----| Pick slide

Play 1st part

Tap to rate this tab
 
# A B C D E F G H I J K L M N O P Q R S T U V W X Y Z