Good Charlotte - Sos Acoustic tab

-------------------------------------------------------------------------------
			     S.O.S acoustic - Good Charlotte
-------------------------------------------------------------------------------

Tuning: half step down

you can listen to this song here: http://www.youtube.com/watch?v=C9R8Mrk1Ltw

Intro                     /play 4 times\  --> you have to find out the
                         /              \     strumming on your own
e|--x--x--x--x----0---0----0----1----0--------------------------------------|
B|--x--x--x--x----0---0----1----1----1--------------------------------------|
G|--x--x--x--x----0---0----2----2----0--------------------------------------|
D|--x--x--x--x----0---0----2----3----2--------------------------------------|
A|--x--x--x--x----0---0----0----3----3--------------------------------------|
E|--x--x--x--x----0---0---------1-------------------------------------------|


Verse (play 1st part 2 times and 2nd part 1 time)
1st part
e|--------------------------------------------------------------------------|
B|--------------------------------------------------------------------------|
G|--------------------------------------------------------------------------|
D|-3-3-x-3-3-3-x-3-3-3-x-3-3-3-x-2--5-5-x-5-5-5-x-5-5-5-x-5-5-5-x-0---------|
A|-3-3-x-3-3-3-x-3-3-3-x-3-3-3-x-2--5-5-x-5-5-5-x-5-5-5-x-5-5-5-x-0---------|
E|-1-1-x-1-1-1-x-1-1-1-x-1-1-1-x-0--3-3-x-3-3-3-x-3-3-3-x-3-3-3-x-0---------|

e|--------------------------------------------------------------------------|
B|--------------------------------------------------------------------------|
G|----------------------------------5-5-x-5-5-5-x--4-4-4-x------------------|
D|-7-7-x-7-7-7-x-7-7-7-x-7-7-7-x-7--5-5-x-5-5-5-x--5-5-5-x------------------|
A|-7-7-x-7-7-7-x-7-7-7-x-7-7-7-x-7--3-3-x-3-3-3-x--2-2-2-x---7-x-5-x-2-x----|
E|-5-5-x-5-5-5-x-5-5-5-x-5-5-5-x-5---------------------------5-x-3-x-0-x----|

2nd part
e|--------------------------------------------------------------------------|
B|--------------------------------------------------------------------------|
G|--------------------------------------------------------------------------|
D|-3-3-3-x-3-3-3-x-3-3-3-x-3-3-3-x-0--2-2-x-2-2-2-x-2-2-2-x-2-2-2-x-2-------|
A|-3-3-3-x-3-3-3-x-3-3-3-x-3-3-3-x-0--2-2-x-2-2-2-x-2-2-2-x-2-2-2-x-2-------|
E|-1-1-1-x-1-1-1-x-1-1-1-x-1-1-1-x-0--0-0-x-0-0-0-x-0-0-0-x-0-0-0-x-0-------|

e|--------------------------------------------------------------------------|
B|--------------------------------------------------------------------------|
G|----------------------------------5-5-5-5-5-5-5-5-5-5-5-5-5-5-5-5---------|
D|-7-7-x-7-7-7-x-7-7-7-x-7-7-7-x-7--5-5-5-5-5-5-5-5-5-5-5-5-5-5-5-5---------|
A|-7-7-x-7-7-7-x-7-7-7-x-7-7-7-x-7--3-3-3-3-3-3-3-3-3-3-3-3-3-3-3-3---------|
E|-5-5-x-5-5-5-x-5-5-5-x-5-5-5-x-5------------------------------------------|

Bridge

       / 1st part: play 2 times
e|----|------------------------------------------------------------------------|
B|----|------------------------------------------------------------------------|
G|----|------------------------------------------------------------------------|
D|-3--|-2-2-2-x-2-2-2-x-2-2-2-x-2-2-2-x-0---7-7-x-7-7-7-x-7-7-7-x-7-7-7-x-7----|
A|-3--|-2-2-2-x-2-2-2-x-2-2-2-x-2-2-2-x-0---7-7-x-7-7-7-x-7-7-7-x-7-7-7-x-7----|
E|-1--|-0-0-0-x-0-0-0-x-0-0-0-x-0-0-0-x-0---5-5-x-5-5-5-x-5-5-5-x-5-5-5-x-5----|

e|--------------------------------------------------------------------------|
B|--------------------------------------------------------------------------|
G|--------------------------------------------------------------------------|
D|-5-5-x-5-5-5-x-5-5-5-x-5-5-5-x-2---3-3-x-3-3-3-x-3-3-3-x-3-3-3-x-0--------|
A|-5-5-x-5-5-5-x-5-5-5-x-5-5-5-x-2---3-3-x-3-3-3-x-3-3-3-x-3-3-3-x-0--------|
E|-3-3-x-3-3-3-x-3-3-3-x-3-3-3-x-0---1-1-x-1-1-1-x-1-1-1-x-1-1-1-x-0--------|

2nd part: play 1 time
e|--------------------------------------------------------------------------|
B|--------------------------------------------------------------------------|
G|--------------------------------------------------------------------------|
D|-2-2-x-2-2-2-x-2-2-2-x-2-2-2-x-0---7-7-x-7-7-7-x-7-7-7-x-7-7-7-x-7--------|
A|-2-2-x-2-2-2-x-2-2-2-x-2-2-2-x-0---7-7-x-7-7-7-x-7-7-7-x-7-7-7-x-7--------|
E|-0-0-x-0-0-0-x-0-0-0-x-0-0-0-x-0---5-5-x-5-5-5-x-5-5-5-x-5-5-5-x-5--------|

e|--------------------------------------------------------------------------|
B|--------------------------------------------------------------------------|
G|-5-5-5-5-5-5-5-5-5-5-5-5-5-5-5-5------------------------------------------|
D|-5-5-5-5-5-5-5-5-5-5-5-5-5-5-5-5------------------------------------------|
A|-3-3-3-3-3-3-3-3-3-3-3-3-3-3-3-3------------------------------------------|
E|--------------------------------------------------------------------------|

That's it, have fun :)
Tap to rate this tab
 
# A B C D E F G H I J K L M N O P Q R S T U V W X Y Z