Song name
# A B C D E F G H I J K L M N O P Q R S T U V W X Y Z

Good Charlotte - We Believe Acoustic tab

-------------------------------------------------------------------------------
			     We Believe acoustic - Good Charlotte
-------------------------------------------------------------------------------

Tuning: half step down


I didn't find a tab for this version of "we believe" so here it is.
You can listen to this song here: http://www.youtube.com/watch?v=CHUa8IxJzcQ


Intro/Verse
e|-----3--3-3---3-----3--3-3---3-----3--3-3----3-----3--3-3---3---------|
B|-----3--3-3---3-----3--3-3---3-----3--3-3----3-----3--3-3---3---------|
G|----------------------------------------------------------------------|
D|--2---------2---2-0--------0---0------------------------------0-------|
A|---------------------------------3---------3---3-3--------3-----------|
E|----------------------------------------------------------------------|

e|-----3--3-3---3------3--3-3----3-----3--3-3----3-----3--3-3---3-------|
B|-----3--3-3---3------3--3-3----3-----3--3-3----3-----3--3-3---3-------|
G|------------------2--2--2-2-------------------------------------------|
D|--2---------2---0----0--0-0--0---0-2---------2---2-2--------2---0-----|
A|-----------------------------------3---------3---3-3--------3---------|
E|----------------------------------------------------------------------|


Chorus
e|--3--3-----------3------3--3----------3------2---3--2--0---0--0---0--------|
B|--3----3-----------3----3----3----------3----3---3--3--3---3--1---1--------|
G|--0------0-----------0--0------0----------0--2----------------0---0--------|
D|--2----------2----------0--------------------0----------------2---2--------|
A|--3--------3---3--------2----------2--------------------------3---3--------|
E|------------------------3--------3---3-------------------------------------|


Bridge
e|--0--0----0---3--3----3---0--0------------0-------0--0----0---3--3----3---0--0-------2---2-|
B|--0----0--0---3----3--3---1----1------------1-----0----0--0---3----3--3---1----1-----3---3-|
G|--0-------0---0-------0---0------0------------0---0-------0---0-------0---0------0---2---2-|
D|--2-------2---0-------0---2-----------2-----------2-------2---0-------0---2----------0---0-|
A|--2-------2---2-------2---3---------3---3---------2-------2---2-------2---3----------------|
E|--0-------0---3-------3---------------------------0-------0---3-------3--------------------|

these are just the chords, you have to find out the strumming on your own
e|----0-----3-----0-----2-----0-----2-----0-----2-----------------------------|
B|----0-----3-----1-----3-----1-----3-----0-----3-----------------------------|
G|----0-----0-----0-----2-----0-----2-----0-----2-----------------------------|
D|----2-----0-----2-----0-----2-----0-----2-----0-----------------------------|
A|----2-----2-----3-----------3-----------2-----------------------------------|
E|----0-----3-----------------------------0-----------------------------------|


End
e|----0----------------------------------------------------------------------|
B|----0----------------------------------------------------------------------|
G|----0----------------------------------------------------------------------|
D|----2----------------------------------------------------------------------|
A|----2----------------------------------------------------------------------|
E|----0----------------------------------------------------------------------|

The first chorus is played like the tab above, but in the second and third
chorus you just play the chords...you have to find out the strumming on your own.
That's all, have fun :)
Tap to rate this tab
 
# A B C D E F G H I J K L M N O P Q R S T U V W X Y Z