Good Charlotte - Predictable Acoustic tab

-------------------------------------------------------------------------------
			 Predictable acoustic - Good Charlotte
-------------------------------------------------------------------------------

Tuning: half step down
you can listen to this version of this song here: http://www.youtube.com/watch?v=dYgb6dJx4uY

Intro/Verse1:
e|---------------------------------------------------------------------------|
B|---------------------------------------------------------------------------|
G|--9--9---9--9---10-10--10-10--10--10---5--5---5--5---5--5---5--5---5---5---|
D|--7--7---7--7---7--7---7--7---7---7----2--2---2--2---3--3---3--3---3---3---|
A|---------------------------------------------------------------------------|
E|---------------------------------------------------------------------------|


Chorus: (strumming is not shown)
e|---------------------------------------------------------------------------|
B|----1----------------------------------------------------------------------|
G|----0-----2-----------2----------------------------------------------------|
D|----2-----3-----4-----3----------------------------------------------------|
A|----3-----3-----5-----3----------------------------------------------------|
E|----------1-----2-----1----------------------------------------------------|

Interlude:
e|--------------------------------------------------------------------------|
B|--------------------------------------------------------------------------|
G|--------------------------------------------------------------------------|
D|--7-7--x-x-x-x-x--7-7-7--x-x-x-x-x---7-7--x-x-x-x-x--------x-x-x-x-x------|
A|--7-7--x-x-x-x-x--7-7-7--x-x-x-x-x---7-7--x-x-x-x-x--8-8-8-x-x-x-x-x------|
E|--5-5--x-x-x-x-x--5-5-5--x-x-x-x-x---5-5--x-x-x-x-x--5-5-5-x-x-x-x-x------|


Verse2: (this part is really hard to hear, but it sounds right)

1st part: play 3 times
e|---------------------------------------------------------------------------|
B|---------------------------------------------------------------------------|
G|------------12--9---10---10-10--10-10----0--0--0---4--4---5----5--5---5--5-|
D|--7--7--7---7---7---7----7--7---7--7-----2--2--2---2--2---3----3--3---3--3-|
A|-----------------------------------------3--3--3---------------------------|
E|---------------------------------------------------------------------------|

2nd part: play one time
e|---------------------------------------------------------------------------|
B|--------------------13-13-13-13-13-13-13-13-13-----------------------------|
G|--------------------12-12-12-12-12-12-12-12-12----5-5-5-5-5-------5--------|
D|------------12--9---10-10-10-10-10-10-10-10-10----5-5-5-5-5--2-2--3--------|
A|--7--7--7---7---7---------------------------------3-3-3-3-3--2-2--3--------|
E|--------------------------------------------------3-3-3-3-3--0-0--1--------|


Bridge: (strumming is not shown)

1st part:
e|-----------------------------------------------------------------------\
B|------------------------------------------------------------------------\ 
G|----------------------------5-------------------------------------------|2x
D|---7----3----4----3----7----5----4----3---------------------------------|
A|---7----3----5----3----7----3----5----3---------------------------------/
E|---5----1----2----1----5----3----2----1--------------------------------/

2nd part:

e|--------------------------------------------------------------------------|
B|--------------------------------------------------------------------------|
G|--------------------------------------------------------------------------|
D|--7-7--x-x-x-x-x--7-7-7--x-x-x-x-x---7-7--x-x-x-x-x--------x-x-x-x-x------|
A|--7-7--x-x-x-x-x--7-7-7--x-x-x-x-x---7-7--x-x-x-x-x--8-8-8-x-x-x-x-x------|
E|--5-5--x-x-x-x-x--5-5-5--x-x-x-x-x---5-5--x-x-x-x-x--5-5-5-x-x-x-x-x------|

e|--------------------------------------------------------------------------|
B|--------------------------------------------------------------------------|
G|----------------------------------------------------------5---------------|
D|--7-7--x-x-x-x-x---------x-x-x-x-x---7-7--x-x-x-x-x--2-2--3---------------|
A|--7-7--x-x-x-x-x--8-8-8--x-x-x-x-x---7-7--x-x-x-x-x--2-2--3---------------|
E|--5-5--x-x-x-x-x--5-5-5--x-x-x-x-x---5-5--x-x-x-x-x--0-0--1---------------|

End:
e|--------------------------------------------------------------------------|
B|--------------------------------------------------------------------------|
G|--5-5-------------5-5-5--------------5-5------------------5---------------|
D|--5-5--x-x-x-x-x--5-5-5--x-x-x-x-x---5-5--x-x-x-x-x--2-2--3---------------|
A|--3-3--x-x-x-x-x--3-3-3--x-x-x-x-x---5-5--x-x-x-x-x--2-2--3---------------|
E|--3-3--x-x-x-x-x--3-3-3--x-x-x-x-x---3-3--x-x-x-x-x--0-0--1---------------|
 
so that's it, have fun and please rate :)
Tap to rate this tab
 
# A B C D E F G H I J K L M N O P Q R S T U V W X Y Z