Song name
# A B C D E F G H I J K L M N O P Q R S T U V W X Y Z

Good Charlotte - Hold On Acoustic tab

-------------------------------------------------------------------------------
			     Hold On acoustic - Good Charlotte
-------------------------------------------------------------------------------

Tuning: half step down

you can listen to this version of 'hold on' here: http://www.youtube.com/watch?v=F2hqENAlL5A

Intro/Interlude:
Part1: you play this part in the Interlude, in the Intro you play both parts
e|---------0---------------0---------------2-0---3---2---0---2---0---------|
B|-----------3---3-----------2---2-----2-----------------------------------|
G|-----2---------------0-----------------------2---2---2---2---2-----------|
D|---0---0-----0-----0---0-----0-----0---0---------------------------------|
A|-------------------------------------------------------------------------|
E|-------------------------------------------------------------------------|
Part2:
e|---------0---------------0-----0---------2-0---3---2---0---2---0---------|
B|-----3-----3---3-----------3---------2-----------------------------------|
G|---2---2-----2-------0-----------------------2---2---2---2---2-----------|
D|-------------------0---0-----0-----0---0---------------------------------|
A|-------------------------------------------------------------------------|
E|-------------------------------------------------------------------------|

Verse:
p.m.. . . . . . . . . . . . . . . . . . . . . . . . . . . . . . . . . .
e|-------------------------------------------------------------------------|
B|-------------------------------------------------------------------------|
G|-------------------------------------------------------------------------|
D|---7-7-7-7-7-7-7-7--7-7-7-7-7-7-7-7--4-4-4-4-4-4-4-4---------------------|
A|---5-5-5-5-5-5-5-5--4-4-4-4-4-4-4-4--2-2-2-2-2-2-2-2--5-5-5-5-5-5-5-5----|
E|------------------------------------------------------3-3-3-3-3-3-3-3----|

Pre-Chorus:
e|-------------2---2---0---3---2---0---2------------------------------------|
B|-------------3---3---3---3---3---3---3------------------------------------|
G|-------------2------------------------------6-----------------------------|
D|---4----5----0-----0---0---0---0---0--------6----5----5-------------------|
A|---4----5-----------------------------------4----5----5-(16x)-------------|
E|---2----3----------------------------------------3----3-------------------|

Chorus:                                   after the 2nd and 3rd Chorus: 
e|---------------------------------------|----------------------------------|
B|---------------------------------------|----------------------------------|
G|---7--------6--------4-----------------|--4-4-4-4---------4-4-4-4---------|
D|---7-(8x)---7-(8x)---4-(8x)---5--------|--4-4-4-4--4--5---4-4-4-4--4--5---|
A|---5--------4--------2--------5-(8x)---|--2-2-2-2--4--5---2-2-2-2--4--5---|
E|------------------------------3--------|-----------2--3------------2--3---|

Bridge: (after 2nd Chorus)
e|--------------------------------------------------------------------------|
B|--------------------------------------------------------------------------|
G|--------------------------------------------------------------------------|
D|--------7-----7----------7-----7----------4-----4-------------------------|
A|--5-5-5---5-5---5--4-4-4---4-4---4--2-2-2---2-2---2--------5-----5--------|
E|-----------------------------------------------------3-3-3---3-3---3------|

That's all, have fun and please rate ;)
Tap to rate this tab
 
# A B C D E F G H I J K L M N O P Q R S T U V W X Y Z