Song name
# A B C D E F G H I J K L M N O P Q R S T U V W X Y Z

Good Charlotte - Sex On The Radio tab

Sex on the radio - Good Charlotte :)
Intro
start softly on each note and get louder with each repetition
e|--------------------------------------------------|
B|--------------------------------------------------|
G|--------------------------------------------------|
D|--------------------------------------------------|
A|--------77777777--------55555555------------------|
E|55555555--------77777777--------------------------|
Verse 1

e|--------------------------------------------------|
B|--------------------------------------------------|
G|--------------------------------------------------| x2
D|--------------------------------------------------|
A|--------77777777--------55555555------------------|
E|55555555--------77777777--------------------------| 

e|--------------------------------------------------|
B|--------------------------------------------------|
G|-------------99-999-9--------77-777---------------|
D|99/7-77-777-799-999-999-999-977-777---------------|
A|99/7-77-777-7--------99-999-9---------------------|
E|77/5----------------------------------------------|

e|--------------------------------------------------|
B|--------------------------------------------------|
G|---------99-999-9--------77-777-------------------|
D|777-777-799-999-999-999-977-777-------------------|
A|777-777-7--------99-999-9-------------------------|
E|--------------------------------------------------|

 Pre-chorus 1
This part is fairly simple, just play along with the song :)
e|------xx-xxx-xx-xxx-------------------------------|
B|------xx-xxx-xx-xxx-------------------------------|
G|------xx-xxx9xx-xxx-------7-77-7------------------|
D|99/7-7xx-xxx9xx-xxx9-99-9-7-77-7------------------|
A|99/7-7xx-xxx7xx-xxx9-99-9-5-55-5------------------|
E|77/5-5xx-xxx-xx-xxx7-77-7-------------------------|

e|-xx-xxx-xx-xxx------------------------------------|
B|-xx-xxx-xx-xxx------------------------------------|
G|-xx-xxx9xx-xxx-------7----------------------------|
D|7xx-xxx9xx-xxx9-99-9-7----------------------------|
A|7xx-xxx7xx-xxx9-99-9-5----------------------------|
E|5xx-xxx-xx-xxx7-77-7------------------------------|

Chorus 1
e|--------------------------------------------------|
B|--------------------------------------------------|
G|--------99999999--------77777777------------------|x2
D|77777777999999999999999977777777------------------|
A|77777777777777779999999955555555------------------|
E|55555555--------77777777--------------------------|

Verse 2 
e|--------------------------------------------------|
B|--------------------------------------------------|
G|--------99-999-9--------77-777--------------------|
D|77-777-799-999-999-999-977-777--------------------| x2
A|77-777-7--------99-999-9--------------------------|
E|--------------------------------------------------|

e|--------------------------------------------------|
B|--------------------------------------------------|
G|--------------------------------------------------|
D|--------------------------------------------------|x2
A|--------77777777--------55555555------------------|
E|55555555--------77777777--------------------------|

Prechorus 2
e|------xx-xxx-xx-xxx-------------------------------|
B|------xx-xxx-xx-xxx-------------------------------|
G|------xx-xxx9xx-xxx-------7-77-7------------------|
D|99/7-7xx-xxx9xx-xxx9-99-9-7-77-7------------------|
A|99/7-7xx-xxx7xx-xxx9-99-9-5-55-5------------------|
E|77/5-5xx-xxx-xx-xxx7-77-7-------------------------|

e|-xx-xxx-xx-xxx------------------------------------|
B|-xx-xxx-xx-xxx------------------------------------|
G|-xx-xxx9xx-xxx-------7----------------------------|
D|7xx-xxx9xx-xxx9-99-9-7----------------------------|
A|7xx-xxx7xx-xxx9-99-9-5----------------------------|
E|5xx-xxx-xx-xxx7-77-7------------------------------|

Chorus 2
e|--------------------------------------------------|
B|--------------------------------------------------|
G|--------99999999--------77777777------------------|x4
D|77777777999999999999999977777777------------------|
A|77777777777777779999999955555555------------------|
E|55555555--------77777777--------------------------|

Bridge 1
e|--------------------------------------------------|
B|--------------------------------------------------|
G|--------9-9-9-9---------7-7-7-7-7~----------------|
D|7-7-7-7-9-9-9-9-9-9-9-9-7-7-7-7-7~----------------|x2
A|7-7-7-7-7-7-7-7-9-9-9-9-5-5-5-5-5~----------------|
E|5-5-5-5---------7-7-7-7---------------------------|

e|--------------------------------------------------------------------------|
B|--------------------------------------------------------------------------|
G|----------------9999999999999999------------------------------------------|
D|77777777777777779999999999999999999999999999999977777777777777777777777777|
A|77777777777777777777777777777777999999999999999977777777777777777777777777|
E|5555555555555555----------------777777777777777755555555555555555555555555|

Prechorus 3

e|--------------------------------------------------|
B|--------------------------------------------------|
G|--------------------------------------------------|
D|--------------------------------------------------|x2
A|--------77777777--------55555555------------------|
E|55555555--------77777777--------------------------|

Chorus 3

e|--------------------------------------------------|
B|--------------------------------------------------|
G|--------99999999--------77777777------------------|x4
D|77777777999999999999999977777777------------------|
A|77777777777777779999999955555555------------------|
E|55555555--------77777777--------------------------|

e|--------------------------------------------------|
B|--------------------------------------------------|
G|9/2-----------------------------------------------|
D|9/2-----------------------------------------------|
A|7/0-----------------------------------------------|
E|--------------------------------------------------|
Tap to rate this tab
 
# A B C D E F G H I J K L M N O P Q R S T U V W X Y Z