Song name
# A B C D E F G H I J K L M N O P Q R S T U V W X Y Z

Good Charlotte - Screamer tab

Pretty awesome song. I couldn't find a really good tab 4 this so i decided to make one. PLEASE RATE! :)

SONG: Screamer
BAND: Good Charlotte
TABBED BY: 06gtrplay92  ZuukZter@aim.com

Intro:

Guitar 1
e|--0-16-17-16---|
B|---------------|
G|---------------| x17
D|---------------|
A|---------------|
E|---------------|

Guitar 2 (Clean / Acoustic) 
e|-x-x-x-x-x-x--2-2--x-x-x-x-x-x--2-2----|    |--x--|
B|-x-x-x-x-x-x--2-2--2-2-2-2-2-2--2-2----|    |--x--|
G|-1-1-1-1-1-1--4-4--2-2-2-2-2-2--4-4----|    |--1~-|
D|-2-2-2-2-2-2--4-4--2-2-2-2-2-2--4-4----| x2 |--2~-|
A|-2-2-2-2-2-2--2-2--0-0-0-0-0-0--2-2----|    |--2~-|
E|-0-0-0-0-0-0--2-2--x-x-x-x-x-x--2-2----|    |--0~-|

Guitar 3 (Slightly Distorted)             
e|-------------------------------------------|    |-----|
B|-------------------------------------------|    |-----|
G|--------------4-4--2-2-2-2-2-2-2-2--4-4----|    |-----|
D|-2-2-2-2-2-2--4-4--2-2-2-2-2-2-2-2--4-4----| x2 |--2~-| 
A|-2-2-2-2-2-2--2-2--0-0-0-0-0-0-0-0--2-2----|    |--2~-|
E|-0-0 0-0-0-0-------------------------------|    |--0~-|

 During the first verse, the Bass carries on the tune.


Chorus 1:

Guitar 2 (Clean / Acoustic) 
e|-x-x-x-x-x-x--2-2--x-x-x-x-x-x--2-2----| 
B|-x-x-x-x-x-x--2-2--2-2-2-2-2-2--2-2----| 
G|-1-1-1-1-1-1--4-4--2-2-2-2-2-2--4-4----| 
D|-2-2-2-2-2-2--4-4--2-2-2-2-2-2--4-4----| x5
A|-2-2-2-2-2-2--2-2--0-0-0-0-0-0--2-2----| 
E|-0-0-0-0-0-0--2-2--x-x-x-x-x-x--2-2----| 

Guitar 3 (Slightly Distorted)
e|-------------------------------------------| 
B|-------------------------------------------| 
G|--------------4-4--2-2-2-2-2-2-2-2--4-4----|
D|-2-2-2-2-2-2--4-4--2-2-2-2-2-2-2-2--4-4----| x5
A|-2-2-2-2-2-2--2-2--0-0-0-0-0-0-0-0--2-2----| 
E|-0-0 0-0-0-0-------------------------------| 

Pre- Verse 1:

Guitar 1
e|--0-16-17-16---|    |-16~-|
B|---------------|    |-----|
G|---------------|    |-----| 
D|---------------| x8 |-----|
A|---------------|    |-----|
E|---------------|    |-----|

Guitar 2 (Clean / Acoustic) 
e|-x-x-x-x-x-x--2-2--x-x-x-x-x-x--2-2----| 
B|-x-x-x-x-x-x--2-2--2-2-2-2-2-2--2-2----| 
G|-1-1-1-1-1-1--4-4--2-2-2-2-2-2--4-4----| 
D|-2-2-2-2-2-2--4-4--2-2-2-2-2-2--4-4----| x2
A|-2-2-2-2-2-2--2-2--0-0-0-0-0-0--2-2----| 
E|-0-0-0-0-0-0--2-2--x-x-x-x-x-x--2-2----| 

Guitar 3 (Slightly Distorted)
e|-------------------------------------------| 
B|-------------------------------------------| 
G|--------------4-4--2-2-2-2-2-2-2-2--4-4----|
D|-2-2-2-2-2-2--4-4--2-2-2-2-2-2-2-2--4-4----| x2
A|-2-2-2-2-2-2--2-2--0-0-0-0-0-0-0-0--2-2----| 
E|-0-0 0-0-0-0-------------------------------| 

Verse 2:

Guitar 2 (Clean / Acoustic) 
e|-x-x-x-x-x-x--2-2--x-x-x-x-x-x--2-2----| 
B|-x-x-x-x-x-x--2-2--2-2-2-2-2-2--2-2----| 
G|-1-1-1-1-1-1--4-4--2-2-2-2-2-2--4-4----| 
D|-2-2-2-2-2-2--4-4--2-2-2-2-2-2--4-4----| x5
A|-2-2-2-2-2-2--2-2--0-0-0-0-0-0--2-2----| 
E|-0-0-0-0-0-0--2-2--x-x-x-x-x-x--2-2----| 

Chorus 3:

Guitar 2 (Clean / Acoustic) 
e|-x-x-x-x-x-x--2-2--x-x-x-x-x-x--2-2----| 
B|-x-x-x-x-x-x--2-2--2-2-2-2-2-2--2-2----| 
G|-1-1-1-1-1-1--4-4--2-2-2-2-2-2--4-4----| 
D|-2-2-2-2-2-2--4-4--2-2-2-2-2-2--4-4----| x6
A|-2-2-2-2-2-2--2-2--0-0-0-0-0-0--2-2----| 
E|-0-0-0-0-0-0--2-2--x-x-x-x-x-x--2-2----| 

Guitar 3 (Slightly Distorted)
e|-------------------------------------------| 
B|-------------------------------------------| 
G|--------------4-4--2-2-2-2-2-2-2-2--4-4----|
D|-2-2-2-2-2-2--4-4--2-2-2-2-2-2-2-2--4-4----| x6
A|-2-2-2-2-2-2--2-2--0-0-0-0-0-0-0-0--2-2----| 
E|-0-0 0-0-0-0-------------------------------| 

Interlude:

Guitar 1
e|--0-16-17-16---|
B|---------------|
G|---------------|
D|---------------| x8
A|---------------|
E|---------------|

Guitar 2 (Clean / Acoustic) 
e|-x-x-x-x-x-x--2-2--x-x-x-x-x-x--2-2----| 
B|-x-x-x-x-x-x--2-2--2-2-2-2-2-2--2-2----| 
G|-1-1-1-1-1-1--4-4--2-2-2-2-2-2--4-4----| 
D|-2-2-2-2-2-2--4-4--2-2-2-2-2-2--4-4----| x2
A|-2-2-2-2-2-2--2-2--0-0-0-0-0-0--2-2----| 
E|-0-0-0-0-0-0--2-2--x-x-x-x-x-x--2-2----| 

Guitar 3 (Slightly Distorted)
e|-------------------------------------------| 
B|-------------------------------------------| 
G|--------------4-4--2-2-2-2-2-2-2-2--4-4----|
D|-2-2-2-2-2-2--4-4--2-2-2-2-2-2-2-2--4-4----| x2
A|-2-2-2-2-2-2--2-2--0-0-0-0-0-0-0-0--2-2----| 
E|-0-0 0-0-0-0-------------------------------| 

Bridge:

e|--------------------------------------------------------------------|
B|--------------------------------------------------------------------|
G|-2-2-2-2-2-2-2-2-4-4-4-4-4-4-4-4------------------------------------|
D|-2-2-2-2-2-2-2-2-4-4-4-4-4-4-4-4-2-2-2-2-2-2-2-2-6-6-6-6-6-6-6-6----|
A|-0-0-0-0-0-0-0-0-2-2-2-2-2-2-2-2-2-2-2-2-2-2-2-2-6-6-6-6-6-6-6-6----|
E|---------------------------------0-0-0-0-0-0-0-0-4-4-4-4-4-4-4-4----|

e|---------------------------------------------------|
B|---------------------------------------------------|
G|-2-2-2-2-2-2-2-2-8-8-8-8-9-9-9-9-11-11-11-11-11----|
D|-2-2-2-2-2-2-2-2-8-8-8-8-9-9-9-9-11-11-11-11-11----|
A|-0-0-0-0-0-0-0-0-6-6-6-6-7-7-7-7--9--9--9--9--9----|
E|---------------------------------------------------|

Outro:

Guitar whatever (Distorted)
e|-------------------|
B|-------------------|
G|---------2-2-------|
D|-2-2-4-4-2-2-4-4---|
A|-2-2-4-4-0-0-4-4---| x2
E|-0-0-2-2-----2-2---|


Guitar 3 (Distorted)
e|----------------------------------------------------------------------|
B|----------------------------------------------------------------------|
G|--------------2-2-----------------------------------2-2-2-2-2-2-2-2---|
D|-2-2----------2-2------------------2-2--------------2-2-2-2-2-2-2-2---|
A|-2-2----------0-0------------------2-2--------------0-0-0-0-0-0-0-0---|
E|-0-0-------------------------------0-0--------------------------------|

Guitar 4 (Distorted)
e|---------------------------------------------------|
B|---------------------------------------------------|
G|---------------------------------------------------|
D|---------------------------------------------------|
A|----7h9-11-9--------14h16p14-11-9--------7h9-11-9--|
E|---------------------------------------------------|

End with:

Guitar 1
e|--0-16-17-16---|
B|---------------|
G|---------------| x16
D|---------------|
A|---------------|
E|---------------|

Guitar 2 (Clean / Acoustic) 
e|-x-x-x-x-x-x--2-2--x-x-x-x-x-x--2-2----|    |--x--|
B|-x-x-x-x-x-x--2-2--2-2-2-2-2-2--2-2----|    |--x--|
G|-1-1-1-1-1-1--4-4--2-2-2-2-2-2--4-4----|    |--1~-|
D|-2-2-2-2-2-2--4-4--2-2-2-2-2-2--4-4----| x3 |--2~-|
A|-2-2-2-2-2-2--2-2--0-0-0-0-0-0--2-2----|    |--2~-|
E|-0-0-0-0-0-0--2-2--x-x-x-x-x-x--2-2----|    |--0~-|

Guitar 3 (Slightly Distorted)             
e|-------------------------------------------|    |-----|
B|-------------------------------------------|    |-----|
G|--------------4-4--2-2-2-2-2-2-2-2--4-4----|    |-----|
D|-2-2-2-2-2-2--4-4--2-2-2-2-2-2-2-2--4-4----| x3 |--2~-| 
A|-2-2-2-2-2-2--2-2--0-0-0-0-0-0-0-0--2-2----|    |--2~-|
E|-0-0 0-0-0-0-------------------------------|    |--0~-|

That's it! Have fun. PLEASE RATE! :)


Tap to rate this tab
# A B C D E F G H I J K L M N O P Q R S T U V W X Y Z