Song name
# A B C D E F G H I J K L M N O P Q R S T U V W X Y Z

Good Charlotte - River Acoustic Live chords

Highlighted       Show chord diagrams
Good Charolette - The River (Acoustic)(Live)

http://www.youtube.com/watch?v=Lo09kWD9r_w&list=FL9oMDiHFDS-4&index=13

Amazing song, and I couldn't find good chords for the acoustic version, so I found out 
myself. Also, strum patterns could differ, so listen to the song to get the rhythm down. 
This is how I play it

It seems like everyone says it, but this is my first tab :)

____ANDY______

Acoustic Guitar - Eb Standard tuning

Chords Used in song:
 Em   C   G   A
 -0- -0- -3- ---|
 -0- -1- -3- ---|
 -0- -0- -0- -2-|
 -2- -2- -0- -2-|
 -2- -3- -x- -0-|
 -0- --- -3- ---|






Intro:

Em      C      G      A   x2

Verse 1:
	G1 - From video of them playing acoustic (Follows the real song's bass line)
|-------------------------------|
|-------------------------------|
|-9---7---5---4-------------9---|
|-9---7---5---5---12---12---9---|  x 4
|-7---5---3---2---10----9---7---|
|-------------------------------|

or
	G2 - Easier and More of what the real guitar part is
|-------------------------------|
|-------------------------------|
|-9-------------------------9---|
|-9---------------12---12---9---|  x 4
|-7---------------10----9---7---|
|-------------------------------|

Pre-Chorus:

G      A       G      A

Chorus:

Em     C       G      A      x4

Pre-Verse:

Em

Verse 2:
	G1 - From video of them playing acoustic (Follows the real song's bass line)
|-------------------------------|
|-------------------------------|
|-9---7---5---4-------------9---|
|-9---7---5---5---12---12---9---|  x 4
|-7---5---3---2---10----9---7---|
|-------------------------------|

or
	G2 - Easier and More of what the real guitar part is
|-------------------------------|
|-------------------------------|
|-9-------------------------9---|
|-9---------------12---12---9---|  x 4
|-7---------------10----9---7---|
|-------------------------------|

Pre-Chorus:

G      A       G      A

Chorus:

Em     C       G      A      x4

Chorus (On my own):

Em     C       G      A      x4

Chorus:

Em     C       G      A      x4

Outro:
Em

That's it. Hope it's helpful :)
Tap to rate this tab
# A B C D E F G H I J K L M N O P Q R S T U V W X Y Z