Song name
# A B C D E F G H I J K L M N O P Q R S T U V W X Y Z

Good Charlotte - I Heard You tab

ok this is a kick ass song so heres how to play it:

standard tuning EADGBe

e----------       
b----------      
g--5--4----  mess around w/
d----------  those 2 notes
a----------
e----------

and then do this:

e-----------
b-----------
g--5--7--5--
d-----------
a-----------
e-----------

verse:
bass only, but the notes are

e---------------
b---------------
g---------------
d---------------
a--3------------

chorus:

e---------------
b---------------
g--5------------
d--5--2--3--5---
a--3--2--3--5---
e-----0--1--3---

the bridge is the same chords as the chorus, just slower and later w/ PM

order:
intro
verse
chorus
intro
verse
chorus
bridge
chorus
intro

end on C

there ya go now have fun with that
Tap to rate this tab
# A B C D E F G H I J K L M N O P Q R S T U V W X Y Z