Song name
# A B C D E F G H I J K L M N O P Q R S T U V W X Y Z

Good Charlotte - Waldorf Worldwide Acoustic tab

THIS IS MY VERY FIRST TAB. I THINK THAT IT IS ALMOST RIGHT AND WOULD LIKE TO
HEAR ANY CORRECTIONS.

PUNKER_817@HOTMAIL.COM


 Chords
|------------------------------------------------------------|
|------------------------------------------------------------|
|---------------10-10-10-10-10---8-8-8-8-8---10-10-10-10-10--|
|---8-8-8-8-8---10-10-10-10-10---8-8-8-8-8---10-10-10-10-10--| 
|---8-8-8-8-8---8--8--8--8--8----6-6-6-6-6---8--8--8--8--8---|
|---6-6-6-6-8------------------------------------------------|
		Repeat Until Bridge



 Bridge
|----------------------------------------------------|
|----------------------------------------------------|
|---8-8-8-8-8-8-8-8--10-10-10-10-10-10-10-10---------| 
|---8-8-8-8-8-8-8-8--10-10-10-10-10-10-10-10---------|\  
|---6-6-6-6-6-6-6-6--8--8--8--8--8--8--8--8----------| \
|----------------------------------------------------|  \
                                                         > Repeat 2x
|----------------------------------------------------|  /
|----------------------------------------------------| /
|----------------------------------------------------|/
|---8-8-8-8--6-6-6-6--5-5-5-5-5-5-5------------------|
|---8-8-8-8--6-6-6-6--5-5-5-5-5-5-5------------------|
|---6-6-6-6--4-4-4-4--3-3-3-3-3-3-3------------------|


|----------------------------------------------------|
|----------------------------------------------------|
|---8-8-8-8-8-8-8-8--10-10-10-10-10-10-10-10---------| 
|---8-8-8-8-8-8-8-8--10-10-10-10-10-10-10-10---------|  
|---6-6-6-6-6-6-6-6--8--8--8--8--8--8--8--8----------|
|----------------------------------------------------| 

Go Back To Chords Until Finish
Tap to rate this tab
 
# A B C D E F G H I J K L M N O P Q R S T U V W X Y Z