Song name
# A B C D E F G H I J K L M N O P Q R S T U V W X Y Z

Good Charlotte - My Bloody Valentine tab

awesome song!
please post corrections etc... 

Intro:

Guitar2
e|--------------------------------------|
B|--------------------------------------|
G|-2---------------7--------------------|
D|-2----2----4-----7--------------------|
A|-0----2----4-----5--------------------|
E|------0----2--------------------------|
 "oh my love, please dont cry"
  
e|--------------------------------------|
B|-----------------4--------------------|
G|-2---------------7--------------------|
D|-2----2----4-----7--------------------|
A|-0----2----4-----5--------------------|
E|------0----2--------------------------|
 "ill wash my bloody hands and well start a new life"

Guitar1
e|----------------------------------------|
B|----------------------------------------|
G|-7-------9-------11------13------14-----|
D|-x-(8x)--x-(8x)--x--(8x)-x--(8x)-x-(1x)-|
A|-5-------7-------9-------11------12-----|
E|----------------------------------------|
   
Guitar2
e|----------------------------------------|
B|----------------------------------------|
G|-77777777777777777777777777777777-------|
D|-77777777777777777777777777777777-------|
A|-55555555555555555555555555555555-------|
E|----------------------------------------|

Verse:

Guitar1
e|----------------------------------------|
B|----------------------------------------|
G|----------------------------------------|  
D|---------<7>------------7--9--11--13----| (2x)
A|-------------------(3x)-x--x--x---x-----|
E|------------------------5--7--9---11----|
(not sure about this, probly uses effects pedal to get the right sound)
Guitar2
e|----------------------------------------|
B|----------------------------------------|
G|------------------------7-7-7-7-7-7-7~--|
D|----------22222222------7-7-7-7-7-7-7~--|  (2x)
A|-777777-4-22222222------5-5-5-5-5-5-5~--|
E|-555555-2-00000000-(3x)-----------------| 
pm ...... . ........
"i ripped out, his...   ...hear you cry"

Pre Chorus:

guitar1
e|------------------------------------------------|
B|------------------------------------------------|
G|-4~---4-6-7~-------------------7--9--11--13-----|
D|-4~---4-6-7~---4444-4--2222-2--x--x--x---x------| (2x)
A|-2~---2-4-5~---4444-4--2222-2--5--7--9---11-----|
E|---------------2222-2--0000-0-------------------| 

guitar2
e|------------------------------------------------|
B|------------------------------------------------|
G|-4~---4-6-7~-------------------7777777777777777-|
D|-4~---4-6-7~---4444-4--2222-2--7777777777777777-|  (2x)
A|-2~---2-4-5~---4444-4--2222-2--5555555555555555-|
E|---------------2222-2--0000-0-------------------| 
pm               ....    .... 
"you morn... ...the night he died"(2nd time stop short for a pause "singing")

Chorus:

Guitar1
e|-------------------------------------------|
B|-------------------------------------------|
G|----------------------------7777-7-7-7-7---|
D|-77777777-22222222-44444444-7777-x-x-x-x---| (3x)
A|-77777777-22222222-44444444-5555-5-5-5-5---|
E|-55555555-00000000-22222222----------------|
                            (2nd time play octaves)
Guitar2
e|---------------------------------------|
B|---------------------------------------|
G|----------------------------77777777---|
D|-77777777-22222222-44444444-77777777---| (3x)
A|-77777777-22222222-44444444-55555555---|
E|-55555555-00000000-22222222------------|
"oh my love please dont...wrong from right"

Guitar1 and 2
e|---------------------------------------|
B|---------------------------------------|
G|-------------------77777777-77777777---|
D|-77777777-22222222-77777777-77777777---| (1x)
A|-77777777-22222222-55555555-55555555---|
E|-55555555-00000000---------------------|
"all i know is that i love you tonight"

verse2:

Guitar 1
e|----------------------------------------|
B|----------------------------------------|
G|-----------------------7-7-7-7-7-7-7-7--| 
D|-------<7>-------------7-7-7-7-7-7-7-7--| (2x)
A|-------------------(3x)5-5-5-5-5-5-5-5--|
E|----------------------------------------| 

Guitar 2 
e|---------------------------------------|
B|---------------------------------------|
G|-----------------------7-7-7-7-7-7-7-7-|
D|-----------------(3x)--7-7-7-7-7-7-7-7-| (1x)
A|-----------------------5-5-5-5-7-7-7-7-|
E|---------------------------------------|
(no guitar in 1st bit of 2nd verse)

e|---------------------------------------|
B|---------------------------------------|
G|-----------------------7-7-7-7-7-7-7-7-|
D|------------------(3x)-7-7-7-7-7-7-7-7-| (1x)
A|-777777-4-22222222-----5-5-5-5-7-7-7-7-|
E|-555555-2-00000000---------------------|
(not palm muted)

Pre Chorus:

guitar1
e|------------------------------------------------|
B|------------------------------------------------|
G|-4~---4-6-7~-------------------7--9--11--13-----|
D|-4~---4-6-7~---4444-4--2222-2--x--x--x---x------| (2x)
A|-2~---2-4-5~---4444-4--2222-2--5--7--9---11-----|
E|---------------2222-2--0000-0-------------------| 

guitar2
e|------------------------------------------------|
B|------------------------------------------------|
G|-4~---4-6-7~-------------------7777777777777777-|
D|-4~---4-6-7~---4444-4--2222-2--7777777777777777-|  (2x)
A|-2~---2-4-5~---4444-4--2222-2--5555555555555555-|
E|---------------2222-2--0000-0-------------------| 
pm               ....    .... 
"you morn... ...the night he died"(2nd time stop short for a pause "singing")

Chorus:

Guitar1
e|-------------------------------------------|
B|-------------------------------------------|
G|----------------------------7777-7-7-7-7---|
D|-77777777-22222222-44444444-7777-x-x-x-x---| (3x)
A|-77777777-22222222-44444444-5555-5-5-5-5---|
E|-55555555-00000000-22222222----------------|
                            (2nd time play octaves)
Guitar2
e|---------------------------------------|
B|---------------------------------------|
G|----------------------------77777777---|
D|-77777777-22222222-44444444-77777777---| (3x)
A|-77777777-22222222-44444444-55555555---|
E|-55555555-00000000-22222222------------|
"oh my love please dont...wrong from right"

Guitar1
e|-------------------------------------------|
B|-------------------------------------------|
G|-------------------------------------------|
D|-77777777-22222222--(continued down there)-|
A|-77777777-22222222-------------------------|
E|-55555555-00000000-------------------------|

e|----------------------------------------|
B|----------------------------------------|
G|-7-------9-------11------13------14~----|
D|-x-(4x)--x-(4x)--x--(4x)-x--(4x)-x-(1x)-| (hold last note for aegis)
A|-5-------7-------9-------11------12~----|
E|----------------------------------------|

Guitar2
e|---------------------------------------|
B|---------------------------------------|
G|-------------------77777777-77777777---|
D|-77777777-22222222-77777777-77777777---| (1x)
A|-77777777-22222222-55555555-55555555---|
E|-55555555-00000000---------------------|
"all i know is that i love you tonight"

breakdown:

guitar 1 (clean)
e|----------------------------------------|
B|----------------------------------------|
G|-2--------7-------------2--------7------| (1x)
D|-2---2----7-------------2---2----7------| 
A|-0---2----5-------------0---2----5------|
E|-----0----------------------0-----------|
"tonight..."

e-----------------5---------------------5------|
B---------------6----6----------------6----6---| 
G-2----------7--------7--2---------7--------7--| (2x) 
D-2----2-----7---------7-2----2----7---------7-|
A-0----2-----5-----------0----2----5-----------|
E------0----------------------0----------------|
"he dropped you...      ..im so in love with you"
 (2nd time end on the D with guitar 2 (distorted)

last Chorus and outro:
Guitar1
e|-------------------------------------------|
B|-------------------------------------------|
G|----------------------------7777-7-7-7-7---|
D|-77777777-22222222-44444444-7777-x-x-x-x---| (3x)
A|-77777777-22222222-44444444-5555-5-5-5-5---|
E|-55555555-00000000-22222222----------------|
                            (2nd time play octaves)
Guitar2
e|---------------------------------------|
B|---------------------------------------|
G|----------------------------77777777---|
D|-77777777-22222222-44444444-77777777---| (3x)
A|-77777777-22222222-44444444-55555555---|
E|-55555555-00000000-22222222------------|

Guitar1 and 2
e|---------------------------------------|
B|---------------------------------------|
G|-------------------77777777-77777777---|
D|-77777777-22222222-77777777-77777777---| (1x)
A|-77777777-22222222-55555555-55555555---|
E|-55555555-00000000---------------------|

guitar1
e|----------------------------------------------------------|
B|----------------------------------------------------------|
G|-7------9------11-----13------14-----16-----18-----19-----| (1x)
D|-x-(x8)-x-(x8)-x-(x8)-x--(x8)-x-(x8)-x-(x8)-x-(8x)-x-(8x)-|
A|-5------7------9------11------12-----14-----16-----17-----|
E|----------------------------------------------------------|

guitar2
e|----------------------------------------|
B|----------------------------------------|
G|-77777777777777777777777777777777-------|
D|-77777777777777777777777777777777-------| (2x)
A|-55555555555555555555555555555555-------|
E|----------------------------------------|
"tonight, tonight"

end on:
e|----------------------------------------|
B|----------------------------------------|
G|----------------------------------------|
D|-4~-------------------------------------|
A|-4~-------------------------------------|
E|-2~-------------------------------------|
Tap to rate this tab
# A B C D E F G H I J K L M N O P Q R S T U V W X Y Z