Song name
# A B C D E F G H I J K L M N O P Q R S T U V W X Y Z

Good Charlotte - The Story Of My Old Man tab

----------------------------------------------------------------------------
	       The Story Of My Old Man - Good Charlotte
----------------------------------------------------------------------------
Tabbed by:Gergely

Tuning:Standard

Intro:Guitar1
e|----------------|
H|----------------|
G|4-4-4--44-4-4--4| 2x
D|x-x-x--xx-x-x--x|
A|2-2-2--22-2-2--2|
E|----------------|

Both Guitar
e|----------------|
H|----------------|
G|4-4-4--44-4-4--4| 2x
D|x-x-x--xx-x-x--x|
A|2-2-2--22-2-2--2|
E|----------------|

Verses:Both Guitar

e|----------------|----------------|
H|----------------|----------------|
G|4-4-4--44-4-4--4|----------------|
D|x-x-x--xx-x-x--x|2-2-2--24-4-4--4|
A|2-2-2--22-2-2--2|2-2-2--24-4-4--4|
E|----------------|0-0-0--02-2-2--2|

Guitar1
e|----------------|----------------|
H|----------------|----------------|
G|4-4-4--44-4-4--4|----------------| 2x
D|x-x-x--xx-x-x--x|2-2-2--24-4-4--4|
A|2-2-2--22-2-2--2|2-2-2--24-4-4--4|
E|----------------|0-0-0--02-2-2--2|

e|----------------|----------------|
H|----------------|----------------|
G|4-4-4--44-4-4--4|----------------|
D|x-x-x--xx-x-x--x|2-2-2--24-4-4--4|
A|2-2-2--22-2-2--2|2-2-2--24-4-4--4|
E|----------------|0-0-0--02-2-2--2|

Guitar2
e|----------------|----------------|
H|----------------|----------------|
G|4-4-4--44-4-4--4|----------------| 2x
D|4-4-4--44-4-4--4|2-2-2--24-4-4--4|
A|2-2-2--22-2-2--2|2-2-2--24-4-4--4|
E|----------------|0-0-0--02-2-2--2|

e|----------------|----------------|
H|----------------|----------------|
G|4-4-4--44-4-4--4|----------------|
D|4-4-4--44-4-4--4|2-2-2--24-4-4--4|
A|2-2-2--22-2-2--2|2-2-2--24-4-4--4|
E|----------------|0-0-0--02-2-2--2|

Chorus:Guitar1
e|----------------|----------------|
H|----------------|----------------|
G|8-8-8--86-6-6--6|4-4-4--44-4-4--4| 4x
D|x-x-x--xx-x-x--x|x-x-x--xx-x-x--x|
A|6-6-6--64-4-4--4|2-2-2--22-2-2--2|
E|----------------|----------------|

End
e|----------------|
H|----------------|
G|4-4-4--44-4-4--4|
D|x-x-x--xx-x-x--x|
A|2-2-2--22-2-2--2|
E|----------------|

Guitar2
e|----------------|----------------|
H|----------------|----------------|
G|----------------|----------------| 4x
D|6-6-6--64-4-4--4|2-2-2--22-2-2--2|
A|6-6-6--64-4-4--4|2-2-2--22-2-2--2|
E|4-4-4--42-2-2--2|0-0-0--00-0-0--0|

End
e|----------------|
H|----------------|
G|----------------|
D|2-2-2--22-2-2--2|
A|2-2-2--22-2-2--2|
E|0-0-0--00-0-0--0|

Bridge-Part:Guitar2
e|----------------|
H|----4-------4---|
G|--4---4---4---4-| 7x
D|4-------4-------|
A|----------------|
E|----------------|

Intro:Both Guitar
e|----------------|
H|----------------|
G|4-4-4--44-4-4--4| 2x
D|x-x-x--xx-x-x--x|
A|2-2-2--22-2-2--2|
E|----------------|

Verses2:Both Guitar

e|----------------|----------------|
H|----------------|----------------|
G|4-4-4--44-4-4--4|----------------|
D|x-x-x--xx-x-x--x|2-2-2--24-4-4--4|
A|2-2-2--22-2-2--2|2-2-2--24-4-4--4|
E|----------------|0-0-0--02-2-2--2|

Guitar1
e|----------------|----------------|
H|----------------|----------------|
G|4-4-4--44-4-4--4|----------------| 2x
D|x-x-x--xx-x-x--x|2-2-2--24-4-4--4|
A|2-2-2--22-2-2--2|2-2-2--24-4-4--4|
E|----------------|0-0-0--02-2-2--2|

e|----------------|----------------|
H|----------------|----------------|
G|4-4-4--44-4-----|----------------|
D|x-x-x--xx-x-----|2-2-2--24-4-4--4|
A|2-2-2--22-2-----|2-2-2--24-4-4--4|
E|----------------|0-0-0--02-2-2--2|

Guitar2
e|----------------|----------------|
H|----------------|----------------|
G|4-4-4--44-4-4--4|----------------| 2x
D|4-4-4--44-4-4--4|2-2-2--24-4-4--4|
A|2-2-2--22-2-2--2|2-2-2--24-4-4--4|
E|----------------|0-0-0--02-2-2--2|

e|----------------|----------------|
H|----------------|----------------|
G|4-4-4--44-4-----|----------------|
D|4-4-4--44-4-----|2-2-2--24-4-4--4|
A|2-2-2--22-2-----|2-2-2--24-4-4--4|
E|----------------|0-0-0--02-2-2--2|

Chorus:Guitar1
e|----------------|----------------|
H|----------------|----------------|
G|8-8-8--86-6-6--6|4-4-4--44-4-4--4| 4x
D|x-x-x--xx-x-x--x|x-x-x--xx-x-x--x|
A|6-6-6--64-4-4--4|2-2-2--22-2-2--2|
E|----------------|----------------|

e|----------------|----------------|
H|----------------|----------------|
G|8-8-8--86-6-6--6|4-4-4--44-4-4--4| 4x
D|x-x-x--xx-x-x--x|x-x-x--xx-x-x--x|
A|6-6-6--64-4-4--6|2-2-2--22-2-2--2|
E|----------------|----------------|

End
e|----------------|
H|----------------|
G|4-4-4-4-4-4-4-4-|
D|x-x-x-x-x-x-x-x-|
A|4-4-2-2-1-1-----|
E|------------4-4-|

Guitar2
e|----------------|----------------|
H|----------------|----------------|
G|----------------|----------------| 4x
D|6-6-6--64-4-4--4|2-2-2--22-2-2--2|
A|6-6-6--64-4-4--4|2-2-2--22-2-2--2|
E|4-4-4--42-2-2--2|0-0-0--00-0-0--0|

End
e|----------------|
H|----------------|
G|----------------|
D|2-2-2--22-2-2--2|
A|2-2-2--22-2-2--2|
E|0-0-0--00-0-0--0|

Bridge-Part:Guitar2
e|----------------|
H|----4-------4---|
G|--4---4---4---4-| 14x
D|4-------4-------|
A|----------------|
E|----------------|

e|----------------|
H|----4-----------|
G|--4---4---------|
D|4---------------|
A|----------------|
E|----------------|

End
e|--------20/----6-|
H|--------20/----6-|
G|--------- -------|
D|--------- -------|
A|--------- -------|
E|--------- -------|

Chorus:Guitar1
e|----------------|----------------|
H|----------------|----------------|
G|8-8-8--86-6-6--6|4-4-4--44-4-4--4| 4x
D|x-x-x--xx-x-x--x|x-x-x--xx-x-x--x|
A|6-6-6--64-4-4--4|2-2-2--22-2-2--2|
E|----------------|----------------|

End
e|----------------|
H|----------------|
G|4-4-4--44-4-4--4|
D|x-x-x--xx-x-x--x|
A|2-2-2--22-2-2--2|
E|----------------|

Guitar2
e|----------------|----------------|
H|----------------|----------------|
G|----------------|----------------| 4x
D|6-6-6--64-4-4--4|2-2-2--22-2-2--2|
A|6-6-6--64-4-4--4|2-2-2--22-2-2--2|
E|4-4-4--42-2-2--2|0-0-0--00-0-0--0|

End
e|----------------|
H|----------------|
G|----------------|
D|2-2-2--22-2-2--2|
A|2-2-2--22-2-2--2|
E|0-0-0--00-0-0--0|

Outro:Both Guitar
e|----------------|----------------|
H|----------------|----------------|
G|4-4-4-4---------|----------------| 3x
D|4-4-4-4-6-6-6-6-|2-2-2-2-2-2-2-2-|
A|2-2-2-2-6-6-6-6-|2-2-2-2-2-2-2-2-|
E|--------4-4-4-4-|0-0-0-0-0-0-0-0-|

e|----------------|----------------|
H|----------------|----------------|
G|4-4-4-4---------|----------------|
D|4-4-4-4-6-6-6-6-|2---------------|
A|2-2-2-2-6-6-6-6-|2---------------|
E|--------4-4-4-4-|0---------------|

| /  slide up
| \  slide down
| h  hammer-on
| p  pull-off
| ~  vibrato
| +  harmonic
| x  Mute note
============================================================================
Tap to rate this tab
# A B C D E F G H I J K L M N O P Q R S T U V W X Y Z