Song name
# A B C D E F G H I J K L M N O P Q R S T U V W X Y Z

Good Charlotte - Day That I Die tab

Song:Day That I Die
Album:The Young And The Hopeless
Artist:Good Charlotte
Genre:Pop Punk
Year:2002
Tuning:Half-Step Down (Eb,Ab,Db,Gb,Bb,Eb)

Intro Pt.1 (Distortion)
Eb-----------------------------|
Bb-----------------------------|
Gb-----------------------------|
Db-----------------------------|
Ab-4-4--4-2-4-2--/5-4----------|
Eb--------------------5-2-0~~--|

Intro Pt.2 (Distortion)
Eb----------------------|
Bb----------------------|
Gb----------------------|
Db----------------------|
Ab-0-2-0--4-4--4-5-4-2--|
Eb----------------------|

Intro Pt.3 (Distortion)
Eb---------------------------0~~--|
Bb---------------------------0~~--|
Gb-----2-----2-----2--------------|
Db-0h4---0h4---0h4----------------|
Ab--------------------------------|
Eb-------------------2--0~~-------|

Verse 1 Pt.1 x2 (Clean Tone)
Eb-------------------2-222-22-----------|
Bb-------------------3-333-33-----------|
Gb-2-222-22----------2-222-22-2-222-22--|
Db-2-222-22-2-222-22-0-000-00-2-222-22--|
Ab-0-000-00-2-222-22----------0-000-00--|
Eb----------0-000-00--------------------|

Interlude 1 (Clean Tone)
Eb---------------------2-222-22--2-222-22--|
Bb---------------------3-333-33--3-333-33--|
Gb-6-666-66--6-666-66--2-222-22--2-222-22--|
Db-6-666-66--6-666-66--0-000-00--0-000-00--|
Ab-4-444-44--4-444-44----------------------|
Eb-----------------------------------------|

Verse 1 Pt.2 (Clean Tone)
Eb---------------------2-222-22------------|
Bb---------------------3-333-33------------|
Gb-2-222-22------------2-222-22--2-222-22--|
Db-2-222-22--2-222-22--0-000-00--2-222-22--|
Ab-0-000-00--2-222-22------------0-000-00--|
Eb-----------0-000-00----------------------|

Pre-Chorus 1 (Clean Tone)
Eb-----------2-222-22------------2--|
Bb-----------3-333-33------------3--|
Gb-----------2-222-22------------2--|
Db-2-222-22--0-000-00--2-222-22--0--|
Ab-2-222-22------------2-222-22-----|
Eb-0-000-00------------0-000-00-----|

Chorus 1 (Distortion) x2
Eb-----------------------------------------|
Bb-----------------------------------------|
Gb-----------9-999-99------------7-777-77--|
Db-7-777-77--9-999-99--9-999-99--7-777-77--|
Ab-7-777-77--7-777-77--9-999-99--5-555-55--|
Eb-5-555-55------------7-777-77------------|

Then:
*Verse 2 Pt.1 x2
*Interlude 2

Pre-Chorus 2
Eb-----------2-222-22------------2--|
Bb-----------3-333-33------------3--|
Gb-----------2-222-22------------2--|
Db-2-222-22--0-000-00--2-222-22--0--|
Ab-2-222-22------------2-222-22-----|
Eb-0-000-00------------0-000-00-----|

Chorus 2 x2
Eb-----------------------------------------|
Bb-----------------------------------------|
Gb-----------9-999-99------------7-777-77--|
Db-7-777-77--9-999-99--9-999-99--7-777-77--|
Ab-7-777-77--7-777-77--9-999-99--5-555-55--|
Eb-5-555-55------------7-777-77------------|

Post-Chorus 1 Pt.1
Eb-----------------------------------------|
Bb-----------------------------------------|
Gb-------------------2-----2-----2---------|
Db---------------0h4---0h4---0h4-----------|
Ab-4-4--4-2-4-2----------------------------|
Eb---------------------------------2--0~~--|

Post-Chorus Pt.2
Eb----------------------|
Bb----------------------|
Gb----------------------|
Db----------------------|
Ab-0-2-0--4-4--4h5p4-2--|
Eb----------------------|

Post-Chorus Pt.3
Eb------------------|
Bb------------------|
Gb------------------|
Db------------------|
Ab-/5-4-------------|
Eb------5-2-1~~~~~--|

Bridge
Eb-----------2-222-22------------2-222-22------------2~~~--|
Bb-----------3-333-33------------3-333-33------------3~~~--|
Gb-----------2-222-22------------2-222-22------------2~~~--|
Db-2-222-22--0-000-00--2-222-22--0-000-00--2-222-22--0~~~--|
Ab-2-222-22------------2-222-22------------2-222-22--------|
Eb-0-000-00------------0-000-00------------0-000-00--------|

Chorus 3 x4
Eb-----------------------------------------|
Bb-----------------------------------------|
Gb-----------9-999-99------------7-777-77--|
Db-7-777-77--9-999-99--9-999-99--7-777-77--|
Ab-7-777-77--7-777-77--9-999-99--5-555-55--|
Eb-5-555-55------------7-777-77------------|

Outro
Eb---------|
Bb---------|
Gb---------|
Db-7~~~~~--
Ab-7~~~~~--
Eb-5~~~~~--

Song Order
*Intro Pt.1 (Distortion)
*Intro Pt.2 (Distortion)
*Intro Pt.3 (Distortion)
*Verse 1 Pt.1 x2 (Clean Tone)
*Interlude 1 (Clean Tone)
*Verse 1 Pt.2 (Clean Tone)
*Pre-Chorus 1 (Clean Tone)
*Chorus 1 x2 (Distortion)
*Verse 2 x2 (Clean Tone)
*Interlude 2 (Clean Tone)
*Pre-Chorus 2 (Clean Tone)
*Chorus 2 x2 (Distortion)
*Post-Chorus 1 Pt.1 (Distortion)
*Post-Chorus 1 Pt.2 (Distortion)
*Post-Chorus 1 Pt.3 (Distortion)
*Bridge
*Chorus 3 x4
*Outro

Heres A Link To The Song If You Wanna Play Along:
http://www.youtube.com/watch?v=qmteUV23Qww

*Don't Forget To Rate And Comment If You Liked The Tab
And Comment Your Corrections, I Welcome Corrections.
Tap to rate this tab
# A B C D E F G H I J K L M N O P Q R S T U V W X Y Z