Song name
# A B C D E F G H I J K L M N O P Q R S T U V W X Y Z

Good Charlotte - Click tab

Band: Good Charlotte
ALbum: Yound and the Hopeless



Intro
"guitar 1"
e|------------------------------------------------------------------| 
B|------------------------------------------------------------------| 
G|------------------------------------------------------------------| 
D|------------------------------------------------------------------| 
A|-5---7---9---7---5---7---9---7---5---7---9---7---9---10---9---7---| 
E|------------------------------------------------------------------| 

e|------------------------------------------------------------------| 
B|------------------------------------------------------------------| 
G|------------------------------------------------------------------| 
D|------------------------------------------------------------------| 
A|-5---7---9---7---5---7---9---7---5--------------------------------| 
E|------------------------------------------------------------------| 

Intro
"guitar 2"
e|------------------------------------------------------------------| 
B|------------------------------------------------------------------| 
G|-7จจจจจจจจจจจจจจ--------------------------------------------------| 
D|-7จจจจจจจจจจจจจจ-7จจจจจจจจจจจจจจ-5จจจจจจจจจจจจจจ-5จจจจจจจจจจจจจจ--| 
A|-5จจจจจจจจจจจจจจ-7จจจจจจจจจจจจจจ-5จจจจจจจจจจจจจจ-5จจจจจจจจจจจจจจ--| 
E|-----------------5จจจจจจจจจจจจจจ-3จจจจจจจจจจจจจจ-3จจจจจจจจจจจจจจ--| 

e|------------------------------------------------------------------| 
B|------------------------------------------------------------------| 
G|-7จจจจจจจจจจจจจจ--------------------------------------------------| 
D|-7จจจจจจจจจจจจจจ-7จจจจจจจจจจจจจจ-5จจจจจจจจจจจจจจ------------------| 
A|-5จจจจจจจจจจจจจจ-7จจจจจจจจจจจจจจ-5จจจจจจจจจจจจจจ------------------| 
E|-----------------5จจจจจจจจจจจจจจ-3จจจจจจจจจจจจจจ------------------| 


Verse 1
"guitar 2 (palm muted)"
e|------------------------------------------------------------------| 
B|------------------------------------------------------------------| 
G|7-7-7-7-7-7-7-7-7-------------------------------------------------| 
D|7-7-7-7-7-7-7-7-7-7-7-7-7-7-7-7-7-7-5-5-5-5-5-5-5-5-5-5-5-5-5-5-5-| 
A|5-5-5-5-5-5-5-5-5-7-7-7-7-7-7-7-7-7-5-5-5-5-5-5-5-5-5-5-5-5-5-5-5-| 
E|------------------5-5-5-5-5-5-5-5-5-3-3-3-3-3-3-3-3-3-3-3-3-3-3-3-| 
PMX X X X X X X X X X X X X X X X X X X X X X X X X X X X X X X X X 


Verse 1
"guitar 1" 
e|------------------------------------------------------------------| 
B|------------------------------------------------------------------| 
G|-7----7----------------------7----7-------------------------------| 
D|-7----7-7----7/5----7/5----5-7----7-7----7-5---5-5-5-5-5-5-5------| 
A|-5----5-7----7/5----7/5----5-5----5-7----7-5---5-5-5-5-5-5-5------| 
E|--------5----5/3----7/3----3--------5----5-3---3-3-3-3-3-3-3------| 
     


Chorus 
"guitar 2"
e|------------------------------------------------------------------| 
B|------------------------------------------------------------------| 
G|-7-7-7-7-7-7-7----------------------------------------------------| 
D|-7-7-7-7-7-7-7--7-7-7-7-7-7-7--9-9-9-9-9-9-9-9--5-5-5-5-5-5-5-----| 
A|-5-5-5-5-5-5-5--7-7-7-7-7-7-7--9-9-9-9-9-9-9-9--5-5-5-5-5-5-5-----|
E|----------------5-5-5-5-5-5-5--7-7-7-7-7-7-7-7--3-3-3-3-3-3-3-----| 

e|------------------------------------------------------------------| 
B|------------------------------------------------------------------| 
G|-7-7-7-7-7-7-7----------------------------------------------------| 
D|-7-7-7-7-7-7-7--7-7-7-7-7-7-7--9-9-9-9-9-9-9-9--5-5-5-5-5-5-5-5---|  
A|-5-5-5-5-5-5-5--7-7-7-7-7-7-7--9-9-9-9-9-9-9-9--5-5-5-5-5-5-5-5---|
E|----------------5-5-5-5-5-5-5--7-7-7-7-7-7-7-7--3-3-3-3-3-3-3-3---| 
                                                  X X   X X   X X 
e|------------------------------------------------------------------| 
B|------------------------------------------------------------------| 
G|-7-7-7-7-7-7-7----------------------------------------------------| 
D|-7-7-7-7-7-7-7--7-7-7-7-7-7-7--9-9-9-9-9-9-9-9--5-5-5-5-5-5-5-----| 
A|-5-5-5-5-5-5-5--7-7-7-7-7-7-7--9-9-9-9-9-9-9-9--5-5-5-5-5-5-5-----|
E|----------------5-5-5-5-5-5-5--7-7-7-7-7-7-7-7--3-3-3-3-3-3-3-----| 

e|------------------------------------------------------------------| 
B|------------------------------------------------------------------| 
G|-7-7-7-7-7-7-7----------------------------------------------------| 
D|-7-7-7-7-7-7-7--7-7-7-7-7-7-7--9-9-9-9-9-9-9-9--5-5-5-5-5-5-5-5---|  
A|-5-5-5-5-5-5-5--7-7-7-7-7-7-7--9-9-9-9-9-9-9-9--5-5-5-5-5-5-5-5---|
E|----------------5-5-5-5-5-5-5--7-7-7-7-7-7-7-7--3-3-3-3-3-3-3-3---| 
                                                  X X   X X   X X 
Bridge 
"guitar 1"
e|------------------------------------------------------------------| 
B|------------------------------------------------------------------| 
G|------------------------------------------------------------------| 
D|------------------------------------------------------------------| 
A|-5---7---9---7---5---7---9---7---5---7---9---7---9---10---9---7---| 
E|------------------------------------------------------------------| 

e|------------------------------------------------------------------| 
B|------------------------------------------------------------------| 
G|------------------------------------------------------------------|  
D|------------------------------------------------------------------| 
A|-5---7---9---7---5---7---9---7---5--------------------------------| 
E|------------------------------------------------------------------| 

"guitar 2"
e|------------------------------------------------------------------| 
B|------------------------------------------------------------------| 
G|7-7-7-7-7-7-7-7-7-------------------------------------------------| 
D|7-7-7-7-7-7-7-7-7-7-7-7-7-7-7-7-7-7-5-5-5-5-5-5-5-5-5-5-5-5-5-5-5-|  2X
A|5-5-5-5-5-5-5-5-5-7-7-7-7-7-7-7-7-7-5-5-5-5-5-5-5-5-5-5-5-5-5-5-5-| 
E|------------------5-5-5-5-5-5-5-5-5-3-3-3-3-3-3-3-3-3-3-3-3-3-3-3-| 


Verse 2
"guitar 2" 
e|------------------------------------------------------------------| 
B|------------------------------------------------------------------| 
G|-7-7-7-7-7-7-7----------------------------------------------------| 
D|-7-7-7-7-7-7-7--7-7-7-7-7-7-7--9-9-9-9-9-9-9-9--5-5-5-5-5-5-5-----|  4X
A|-5-5-5-5-5-5-5--7-7-7-7-7-7-7--9-9-9-9-9-9-9-9--5-5-5-5-5-5-5-----|
E|----------------5-5-5-5-5-5-5--7-7-7-7-7-7-7-7--3-3-3-3-3-3-3-----| 
     X X X X X X    X X X X X X    X X X X X X X    X X X X X X 

The third time...
"guitar 1"
e|------------------------------------------------------------------| 
B|------------------------------------------------------------------| 
G|------------------------------------------------------------------| 
D|------------------------------------------------------------------| 
A|5-5-5--7--9-9-9--7--10-10-10--9-9-9--7--5-5-5--7-9-9-9-7-10-10-10-| 
E|------------------------------------------------------------------| 

e|------------------------------------------------------------------| 
B|------------------------------------------------------------------| 
G|------------------------------------------------------------------| 
D|------------------------------------------------------------------| 
A|7--9-9-9--7--5-5-5--7--9-9-9--7--10-10-10--9----------------------| 
E|------------------------------------------------------------------| 


Chorus 
"guitar 2"
e|------------------------------------------------------------------| 
B|------------------------------------------------------------------| 
G|-7-7-7-7-7-7-7----------------------------------------------------| 
D|-7-7-7-7-7-7-7--7-7-7-7-7-7-7--9-9-9-9-9-9-9-9--5-5-5-5-5-5-5-----| 
A|-5-5-5-5-5-5-5--7-7-7-7-7-7-7--9-9-9-9-9-9-9-9--5-5-5-5-5-5-5-----|
E|----------------5-5-5-5-5-5-5--7-7-7-7-7-7-7-7--3-3-3-3-3-3-3-----| 

e|------------------------------------------------------------------| 
B|------------------------------------------------------------------| 
G|7-7-7-7-7-7-7-----------------------------------------------------| 
D|7-7-7-7-7-7-7--7-7-7-7-7-7-7--9-9-9-9-9-9-9-9--5-5-5-5-5-5-5-5----|  
A|5-5-5-5-5-5-5--7-7-7-7-7-7-7--9-9-9-9-9-9-9-9--5-5-5-5-5-5-5-5----|
E|---------------5-5-5-5-5-5-5--7-7-7-7-7-7-7-7--3-3-3-3-3-3-3-3----| 
                                                  X X   X X   X X 
e|------------------------------------------------------------------| 
B|------------------------------------------------------------------| 
G|7-7-7-7-7-7-7-----------------------------------------------------| 
D|7-7-7-7-7-7-7--7-7-7-7-7-7-7--9-9-9-9-9-9-9-9--5-5-5-5-5-5-5------| 
A|5-5-5-5-5-5-5--7-7-7-7-7-7-7--9-9-9-9-9-9-9-9--5-5-5-5-5-5-5------|
E|---------------5-5-5-5-5-5-5--7-7-7-7-7-7-7-7--3-3-3-3-3-3-3------| 

e|------------------------------------------------------------------| 
B|------------------------------------------------------------------| 
G|7-7-7-7-7-7-7-----------------------------------------------------| 
D|7-7-7-7-7-7-7--7-7-7-7-7-7-7--9-9-9-9-9-9-9-9--5-5-5-5-5-5-5-5----|  
A|5-5-5-5-5-5-5--7-7-7-7-7-7-7--9-9-9-9-9-9-9-9--5-5-5-5-5-5-5-5----|
E|---------------5-5-5-5-5-5-5--7-7-7-7-7-7-7-7--3-3-3-3-3-3-3-3----| 
                                                  X X   X X   X X 

Then

e|------------------------------------------------------------------| 
B|------------------------------------------------------------------| 
G|7จจจจจจจจจจจจจจ---------------------------------------------------| 
D|7จจจจจจจจจจจจจจ-7จจจจจจจจจจจจจจ-5จจจจจจจจจจจจจจ-------------------| 
A|5จจจจจจจจจจจจจจ-7จจจจจจจจจจจจจจ-5จจจจจจจจจจจจจจ-------------------| 
E|----------------5จจจจจจจจจจจจจจ-3จจจจจจจจจจจจจจ-------------------| 

e|------------------------------------------------------------------| 
B|------------------------------------------------------------------| 
G|7จจจจจจจจจจจจจจ---------------------------------------------------| 
D|7จจจจจจจจจจจจจจ-7จจจจจจจจจจจจจจ--5-5-5-5-5-5-5-5------------------| 
A|5จจจจจจจจจจจจจจ-7จจจจจจจจจจจจจจ--5-5-5-5-5-5-5-5------------------| 
E|----------------5จจจจจจจจจจจจจจ--3-3-3-3-3-3-3-3------------------| 
                                    X X   X X   X X
Bridge
"guitar 1"
e|------------------------------------------------------------------| 
B|------------------------------------------------------------------| 
G|------------------------------------------------------------------| 
D|------------------------------------------------------------------| 
A|-10-10-10-9-9-9-7-7-7-5-5-5-7-7-9จจจจจจจจจจจ----------------------| 
E|------------------------------------------------------------------|

"guitar 2"
e|------------------------------------------------------------------| 
B|------------------------------------------------------------------| 
G|7-7-7-7-7-7-7-7-7-------------------------------------------------| 
D|7-7-7-7-7-7-7-7-7-7-7-7-7-7-7-7-7-7-5-5-5-5-5-5-5-5-5-5-5-5-5-5-5-|  2X
A|5-5-5-5-5-5-5-5-5-7-7-7-7-7-7-7-7-7-5-5-5-5-5-5-5-5-5-5-5-5-5-5-5-| 
E|------------------5-5-5-5-5-5-5-5-5-3-3-3-3-3-3-3-3-3-3-3-3-3-3-3-| 

"guitar 2"
e|------------------------------------------------------------------| 
B|------------------------------------------------------------------| 
G|7-7-7--X-X--------------------------------------------------------| 
D|7-7-7--X-X---7-7-7--X-X---9-9-9--X-X--5-5-5--X-X------------------|  
A|5-5-5--X-X---5-5-5--X-X---9-9-9--X-X--5-5-5--X-X------------------| 
E|-------------5-5-5--X-X---7-7-7--X-X--3-3-3--X-X------------------| 
	  
e|------------------------------------------------------------------| 
B|------------------------------------------------------------------| 
G|7-7-7--X-X--------------------------------------------------------| 
D|7-7-7--X-X---7-7-7--X-X---5-5-5-5-5-5-5-5-5-5-5-5-5-5-5-5---------|  2X
A|5-5-5--X-X---5-5-5--X-X---5-5-5-5-5-5-5-5-5-5-5-5-5-5-5-5---------| 
E|-------------5-5-5--X-X---3-3-3-3-3-3-3-3-3-3-3-3-3-3-3-3---------| 

"guitar 1"
e|------------------------------------------------------------------|
B|------------------------------------------------------------------| 
G|------------------------------------------------------------------| 
D|------------------------------------------------------------------|  4X
A|-5---7---9---7---5---7---9---7---5---7---9---7---9---10---9---7---| 
E|------------------------------------------------------------------| 


ENDING
"guitar 2"
e|------------------------------------------------------------------| 
B|------------------------------------------------------------------| 
G|-7จจจจจจจจจจจจจจ--------------------------------------------------| 
D|-7จจจจจจจจจจจจจจ-7จจจจจจจจจจจจจจ-5จจจจจจจจจจจจจจ------------------| 
A|-5จจจจจจจจจจจจจจ-7จจจจจจจจจจจจจจ-5จจจจจจจจจจจจจจ------------------| 
E|-----------------5จจจจจจจจจจจจจจ-3จจจจจจจจจจจจจจ------------------| 

"guitar 1"
e|------------------------------------------------------------------| 
B|------------------------------------------------------------------| 
G|------------------------------------------------------------------| 
D|------------------------------------------------------------------| 
A|-9จจจจจจจจจจจจจจ-10จจจจจจจจจจจจจ-12จจจจจจจจจจจจจ------------------| 
E|------------------------------------------------------------------| 

Nearly sure it's a 100% right....

Tap to rate this tab
# A B C D E F G H I J K L M N O P Q R S T U V W X Y Z