Guitaretab - guitar tabs
Song name
# A B C D E F G H I J K L M N O P Q R S T U V W X Y Z

Good Charlotte - Dont Wanna Stop tab

I Don't Wanna Stop - GOOD CHARLOTTE

Tabbed by Andrew Slezak

This is a good song but a very easy song for guitar.
The bass is probably a little more fun with this one.

Bass line comes in first @ beginning...
e |---------------------------------------------------|
B |---------------------------------------------------|
G |----------/-4-4-4-4-/-5-5-5-5-/-7-7-7-7-\------....|
D |--5-5-5-5-/-4-4-4-4-/-5-5-5-5-/-7-7-7-7-\-5-5-5....|
A |--5-5-5-5-/-2-2-2-2-/-3-3-3-3-/-5-5-5-5-\-5-5-5....|
E |--3-3-3-3---------------------------------3-3-3....|
[ Tab from: ]
"And I know.. This is not the way it should it be...."
e |--------------------------------------|-------S--B-|
B |--------------------------------------|-------H--R-|
G |-5-5-5-5-7-7-7-7---------4-4-4-4------|---7-*-A--E-|	2 X's
D |-5-5-5-5-7-7-7-7-5-5-5-5-4-4-4-4------|---7-*-R--A-|
A |-3-3-3-3-5-5-5-5-5-5-5-5-2-2-2-2------|---5-*-P--K-|
E |-----------------3-3-3-3--------------|------------|

e |---------------------------------------|
B |---------------------------------------|	Repeat
G |--5-5-5-5-----------7-7-7-7------------|	 4 X's
D |--5-5-5-5--5-5-5-5--7-7-7-7------------|
A |--3-3-3-3--5-5-5-5--5-5-5-5------------|
E |-----------3-3-3-3---------------------|
Then into Riff #2....
Related for Dont Wanna Stop tab