Song name
# A B C D E F G H I J K L M N O P Q R S T U V W X Y Z

Good Charlotte - Day That I Die tab

Intro
E|-------------------------------------------------------------------------|
B|---1--1----1---1----------2-1----------------1--1---1-2-1----------------|
G|------------3---3~------------1--------1-2-1--------------3--------------|
D|--------------------------------3-1~-------------------------------------|
A|-------------------------------------------------------------------------|
E|-------------------------------------------------------------------------|

E|-------4------4------4---9-8~--------------------------------------------|
B|---5h6----5h6----5h6-----------------------------------------------------|
G|-------------------------------------------------------------------------|
D|-------------------------------------------------------------------------|
A|-------------------------------------------------------------------------|
E|-------------------------------------------------------------------------|


Verse 2

To see the place where we live…
E|----4-6-4-6h8-6h8-4~-----------------------------------------------------|
B|-------------------------------------------------------------------------|
G|-------------------------------------------------------------------------|
D|-------------------------------------------------------------------------|
A|-------------------------------------------------------------------------|
E|-------------------------------------------------------------------------|

And all the things that we did…
E|----------11-------11----------------------------------------------------|
B|----12h13----12h13----12h13--11--9-8-------------------------------------|
G|-------------------------------------------------------------------------|
D|-------------------------------------------------------------------------|
A|-------------------------------------------------------------------------|
E|-------------------------------------------------------------------------|

Drunken fights…
E|-----8-8-9~~---6~~-------------------------------------------------------|
B|-------------------------------------------------------------------------|
G|-------------------------------------------------------------------------|
D|-------------------------------------------------------------------------|
A|-------------------------------------------------------------------------|
E|-------------------------------------------------------------------------|


Solo
E|---------------------------------4-----4-----4---------------------------|
B|-----1-1--1---1--------------5h6---5h6---5h6-----------------------------|
G|------------3---3~----(3)------------------------------------------------|
D|-------------------------------------------------3--1--------------------|
A|-------------------------------------------------------------------------|
E|-------------------------------------------------------------------------|

E|-------------------------------------------------------------------------|
B|-------------1-1--1-2-1------2-1-----------------------------------------|
G|-----1-3-1--------------3~-------1---------------------------------------|
D|------------------------------------3-2~~--------------------------------|
A|-------------------------------------------------------------------------|
E|-------------------------------------------------------------------------|


Tap to rate this tab
 
# A B C D E F G H I J K L M N O P Q R S T U V W X Y Z