Song name
# A B C D E F G H I J K L M N O P Q R S T U V W X Y Z

Good Charlotte - World Is Black tab

Part of the song:Verses
                 Pre-Chorus
                 Chorus
                 Verses
                 Pre-Chorus
                 Chorus
                 Bridge-part
                 Chorus
                 Outro

Guitar1

Verses
E--------------------------------------------------------|
H--------------------------------------------------------|
G--------------------------------------------------------|
D-6-66-66-8-88-88-10-1010-1010-8-88-1010-6-66-66-8-88-88-|
A-6-66-66-8-88-88-10-1010-1010-8-88-1010-6-66-66-8-88-88-|
E-4-44-44-6-66-66-8--8-8--8-8--6-66-8-8--4-44-44-6-66-66-|

---------|
---------|
---------| 2x
10-------|
10-(16x)-|
8--------|

Chorus
E-------------------------------|
H-------------------------------|
G-------------------------------| 2x
D-6-66------5-55------8-88------|
A-6-66-(8x)-5-55-(4x)-8-88-(4x)-|
E-4-44------3-33------6-66------|

Verses
E--------------------------------------------------------|
H--------------------------------------------------------|
G--------------------------------------------------------|
D-6-66-66-8-88-88-10-1010-1010-8-88-1010-6-66-66-8-88-88-|
A-6-66-66-8-88-88-10-1010-1010-8-88-1010-6-66-66-8-88-88-|
E-4-44-44-6-66-66-8--8-8--8-8--6-66-8-8--4-44-44-6-66-66-|

---------|
---------|
---------| 2x
10-------|
10-(16x)-|
8--------|

Chorus
E-------------------------------|
H-------------------------------|
G-------------------------------|
D-6-66------5-55------8-88------|
A-6-66-(8x)-5-55-(4x)-8-88-(4x)-|
E-4-44------3-33------6-66------|

E-------------------------------|
H-------------------------------|
G-------------------------------|
D-6-66------5-55------8-88------|
A-6-66-(8x)-5-55-(4x)-8-88-(8x)-|
E-4-44------3-33------6-66------|

Bridge-Part
E--------------------------------------------------------|
H--------------------------------------------------------|
G-----------------6-66-66-------------------------6------| 2x
D-6-66-66-5-55-55-6-66-66-3-33-33-6-66-66-5-55-55-6-(16x)|
A-6-66-66-5-55-55-4-44-44-3-33-33-6-66-66-5-55-55-4------|
E-4-44-44-3-33-33---------1-11-11-4-44-44-3-33-33--------|

E-----------------------------------|
H-----------------------------------|
G-5-------5-------4-------5---------|
D-6-------6-------5-------8-8-------|
A-6-------6-------5-------8-8-(14x)-|
E-4-------4-------3-------6-6-------|

Chorus
E--------------------------------|
H--------------------------------|
G--------------------------------|
D-6-66------5-55------8-88-------|
A-6-66-(8x)-5-55-(4x)-8-88-(10x)-|
E-4-44------3-33------6-66-------|

Outro
E--------------------------------------------------------|
H--------------------------------------------------------|
G--------------------------------------------------------|
D-6-66-66-8-88-88-10-1010-1010-8-88-1010-6-66-66-8-88-88-|
A-6-66-66-8-88-88-10-1010-1010-8-88-1010-6-66-66-8-88-88-|
E-4-44-44-6-66-66-8--8-8--8-8--6-66-8-8--4-44-44-6-66-66-|

--------|
--------|
--------|
10------|
10------|
8-------|

Guitar2

Chorus
E---------------------------------------------------------|
H---------------------------------------------------------|
G---------------------------------------------------------|
D-----66665555--------66665555--------66665555------------|
A-6666--------88884444--------88883333--------88884444666-|
E---------------------------------------------------------|

---------|
---------|
---------| 2x
-33335555|
6--------|
---------|

Verses
E--------------------------------------------------------|
H--------------------------------------------------------|
G--------------------------------------------------------|
D-3------------------------------------------------------|
A--------------------------------------------------------|
E--------------------------------------------------------|

E-20-------------------------------21-------18-------20--|
H--------------------------------------------------------|
G--------------------------------------------------------|
D--------------------------------------------------------|
A--------------------------------------------------------|
E--------------------------------------------------------|

Chorus
E---------------------------------------------------------|
H---------------------------------------------------------|
G---------------------------------------------------------|
D-----66665555--------66665555--------66665555------------|
A-6666--------88884444--------88883333--------88884444666-|
E---------------------------------------------------------|

---------|
---------|
---------|
-33335555|
6--------|
---------|

E---------------------------------------------------------|
H---------------------------------------------------------|
G---------------------------------------------------------|
D-----66665555--------66665555--------66665555------------|
A-6666--------88884444--------88883333--------88884444666-|
E---------------------------------------------------------|

-------------------------|
-------------------------|
-------------------------|
-333355555555555577777777|
6------------------------|
-------------------------|

Chorus
E---------------------------------------------------------|
H---------------------------------------------------------|
G---------------------------------------------------------|
D-----66665555--------66665555--------66665555------------|
A-6666--------88884444--------88883333--------88884444666-|
E---------------------------------------------------------|

-----------------------------------|
-----------------------------------|
-----------------------------------|
-3333555555555555777777779999999911|
6----------------------------------|
-----------------------------------|

Synth

Verses
E--------------------------------------------------------|
H--------------------------------------------------------|
G-5-3-1-------3-------1-------3---5-3-1-------3-------1--| 2x
D--------------------------------------------------------|
A--------------------------------------------------------|
E--------------------------------------------------------|

Pre-Chorus (Muted)
E---------------------------------------------------------|
H---------------------------------------------------------|
G--------------------------------------------------x------|
D-6-------5-------11-------3-------6-------5-------x-6666-|
A-6-------5-------11-------3-------6-------5-------x-6666-|
E--------------------------------------------------x------|

----------|
----------|
----------|
666-------|
666-------|
----------|

Verses
E--------------------------------------------------------|
H--------------------------------------------------------|
G-5-3-1-------3-------1-------3---5-3-1-------3-------1--| 2x
D--------------------------------------------------------|
A--------------------------------------------------------|
E--------------------------------------------------------|

Pre-Chorus (Muted)
E---------------------------------------------------------|
H---------------------------------------------------------|
G--------------------------------------------------x------|
D-6-------5-------11-------3-------6-------5-------x-6666-|
A-6-------5-------11-------3-------6-------5-------x-6666-|
E--------------------------------------------------x------|

----------|
----------|
----------|
666-------|
666-------|
----------|
Tap to rate this tab
# A B C D E F G H I J K L M N O P Q R S T U V W X Y Z