Song name
# A B C D E F G H I J K L M N O P Q R S T U V W X Y Z

Good Charlotte - Little Things Acoustic tab

Little Things Acoustic - Good Charlotte

Tabbed by: Rory
Email: rory_rt777q@hotmail.com
Tuning: Standard

This song was released as an acoustic a fair while ago, there where no proper tabs for
the acoustic version so i decided to tab this.

Intro
e|----------------------------------------------|
B|----------------------------------------------|
G|-66666----------------------------------------|   3 times then 
D|-66666-66-5-44444--66-------------------------|   start ohh oh oh..
A|-44444-66-5-44444--66-------------------------|
E|-------44-3-22222--55-------------------------|
To Every kid who never...




**VERSE** (Just simple apregios)
e|-------------------------------------|
B|-------------------------------------|   A secong guitar can strum the
G|---6---------------------------------|x4 Chords over this, but sounds
D|--6-6----6------4------7-------------|   just as good without!
A|-4------6-6----4-4----7-7------------|
E|-------4------2------5---------------|
Like the time in school....  (East Side)
And the rich kids had....    (fifty five)
Like the time we made the... (still suck)
Like the time that girl....   *TRICK*


**CHORUS**
e|-----------------------------------------------------------------|
B|-----------------------------------------------------------------|
G|--66666----------------------------------------------------------| x6
D|--66666-66666-44444-77777----------------------------------------|
A|--44444-66666-44444-77777----------------------------------------|
E|--------44444-22222-55555----------------------------------------|
Thiii-i-ngs
The Little things, little things they Always hang around
The Little things, little things they try to break me down
The Little things, little things just won't go away
The Little Things, little thigns make me who i am today *GO*


**Bridge**
e|-----------------------------------------------------------------------|
B|-----------------------------------------------------------------------|
G|-----------------------------------------------------------------------|x1
D|-44--777777-44-777777-44-777777-44-7-8-9-10----------------------------|
A|-44--777777-44-777777-44-777777-44-7-8-9-10----------------------------|
E|-22--555555-22-555555-22-555555-22-5-6-7-8-----------------------------|
 You wanna Hate me now, But i wont stop now, Cause i cant stop now

e|----------------------------------------------|
B|----------------------------------------------|
G|-66666----------------------------------------|x1   
D|-66666-66-5-44444--66-------------------------|   
A|-44444-66-5-44444--66-------------------------|
E|-------44-3-22222--55-------------------------|
yeah, ah



**VERSE** (Just simple apregios)
e|-------------------------------------|
B|-------------------------------------|   
G|---6---------------------------------|x4 
D|--6-6----6------4------7-------------|   
A|-4------6-6----4-4----7-7------------|
E|-------4------2------5---------------|
Like the time mom went.... (I Just Cant Take it)
Like That car we had.....  (Can i get a ride)
And that same year....     (Yeh, ill see you kids later)
We checked his room...   *DICK*



**CHORUS**
e|-------------------------------------|
B|-------------------------------------|
G|-66666-------------------------------|x2   
D|-66666-66-5-44444--66----------------|   
A|-44444-66-5-44444--66----------------|
E|-------44-3-22222--55----------------|
Thiiiingsss



e|------------------------------------------------------------|
B|------------------------------------------------------------|
G|--66666-----------------------------------------------------| x4
D|--66666-66666-44444-77777-----------------------------------|
A|--44444-66666-44444-77777-----------------------------------|
E|--------44444-22222-55555-----------------------------------|
The Little things, little things they Always hang around
The Little things, little things they try to break me down
The Little things, little things just won't go away
The Little Things, little thigns make me who i am today *GO*



**Bridge**
e|-----------------------------------------------------------------------|
B|-----------------------------------------------------------------------|
G|-----------------------------------------------------------------------|x1
D|-44--777777-44-777777-44-777777-44-7-8-9-10----------------------------|
A|-44--777777-44-777777-44-777777-44-7-8-9-10----------------------------|
E|-22--555555-22-555555-22-555555-22-5-6-7-8-----------------------------|
 You wanna Hate me now, But i wont stop now, Cause i cant stop now

**OUTRO**
e|------------------------------------------------------------|
B|------------------------------------------------------------|
G|--66666-----------------------------------------------------| x4
D|--66666-66666-44444-77777-----------------------------------|
A|--44444-66666-44444-77777-----------------------------------|
E|--------44444-22222-55555-----------------------------------|
ohhh oh oh oh ohh(back up vocals)x5
The Little things, Little things(over backup vocals)x4
                   -Here we go-

e|-------------------------------------|
B|-------------------------------------|
G|-66666-------------------------------|x2   
D|-66666-66-5-44444--66----------------|   
A|-44444-66-5-44444--66----------------|
E|-------44-3-22222--55----------------|
ohh oh oh oh ohh
GC baby
ohh oh oh oh ohh
two thousand
ohh oh oh oh ohh
Im waiting
ohh oh oh oh ohh 
here we go


e|-------------------------------------|
B|-------------------------------------|   
G|---6---------------------------------|x4 
D|--6-6----6------4------7-------------|   
A|-4------6-6----4-4----7-7------------|
E|-------4------2------5---------------|
And it always seems those little things they take the biggest part of me
It always seems those little things they take the biggest part of me
It always seems those little things they take the biggest part of me
Break down
And i know that those little things they make the biggest part of me
Break down, Im breaking down, Break down
Gotta maintain


Finish on -046600
Tap to rate this tab
 
# A B C D E F G H I J K L M N O P Q R S T U V W X Y Z