Guitaretab - guitar tabs
Song name
# A B C D E F G H I J K L M N O P Q R S T U V W X Y Z

Good Charlotte - The Young And The Hopeless Live tab

THE WHOLE SONG! Everything is here and I'm pretty sure it's all right... It took me four
hours to tab. However if there is anything wrong then feel free to correct it. It had no
correct tabs so I decided to tab it myself... It took me four hours to tabs and if you
steal my tab and claim it as yours I will hunt you down and steal all of your black
socks! Only the black ones! You have been warned! Thanks and enjoy, Dave

KEY:
/ = Slide up fret board
\ = Slide down fret board
* = Palm mute
. = Let ring
h = hammer on
p = pull off

BOTH GUITARS:
Pull out the old metal pedal and crank up the distortion.


Intro:


Guitar 1 - (Repeat as needed)
e|--------------------------------------------------------------------|
B|--------------------------------------------------------------------|
G|--------------------------------------------------------------------|
D|-1-----------------------------------------------------  (0:00-0:15-|
A|-1------------------------------------------------------------------|
D|-1------------------------------------------------------------------|
   *

Verse 1

(Hard days made me, hard nights shape me...)

Guitar 1 - (repeat as needed)
e|--------------------------------------------------------------|
B|--------------------------------------------------------------|
G|------------55555555555---------------------------------------|
D|-1111111111-55555555555-66666666666-66666666666---------------|
A|-1111111111-33333333333-66666666666-66666666666---------------|
D|-1111111111-------------66666666666-66666666666---------------|
************* *********** *********** ***********

Guitar 2
e--3-4-3-4-6-4-3-4-3-|
B--------------------|
G--------------------| x3 - play over verse chords  (kicks in at 6
D--------------------|      seconds..)
A--------------------| (let last note ring)
D--------------------|


Pre-Chorus (Both Guitars)

(And if I make it through today...)

e|----------------------------------------------------------------|
B|----------------------------------------------------------------|
D|-5555555--------8888888---------5555555--------888888-----------|
G|-5555555-666666-8888888-8888888-5555555-666666-888888-8888888---|
A|-3333333-666666-6666666-8888888-3333333-666666-666666-8888888---|
D|---------666666---------8888888---------666666--------8888888---|


Chorus 1 (Both Guitars)

(Cause I'm Young and I'm Hopeless...)

e|----------------------------------|
B|----------------------------------|
G|---------5------------------------| (x 2)
D|-1-------5-------6-------88888888-|
A|-1-------3-------6-------88888888-|
D|-1---------------6-------88888888-|

Then this:

Listen to the song for the timing:
(and I don't care)
 Guitar 1:
e|-------------|
B|-------------|
G|-------------|
D|-66666666----|
A|-66666666----|
D|-66666666----|

Guitar 2:
e-4-3----------------|
B-----4-6------------|
G--------------------|
D--------------------|
A--------------------|
D--------------------|

Verse 2
('No one in this industry..)
Guitar 1 - (repeat as needed)
e|--------------------------------------------------------------|
B|--------------------------------------------------------------|
G|------------55555555555---------------------------------------|
D|-1111111111-55555555555-66666666666-66666666666---------------|
A|-1111111111-33333333333-66666666666-66666666666---------------|
D|-1111111111-------------66666666666-66666666666---------------|
************* *********** *********** ***********
Guitar 2
e--3-4-3-4-6-4-3-----|
B----------------4---|
G--------------------| x3 - play over verse chords  (kicks in at 6
D--------------------|      seconds..)
A--------------------| (on third time let last note ring)
D--------------------|


Pre-Chorus (Both Guitars)

(And if I make it through the day...)

e|----------------------------------------------------------------|
B|----------------------------------------------------------------|
D|-5555555--------8888888---------5555555--------888888-----------|
G|-5555555-666666-8888888-8888888-5555555-666666-888888-8888888---|
A|-3333333-666666-6666666-8888888-3333333-666666-666666-8888888---|
D|---------666666---------8888888---------666666--------8888888---|


Chorus 2 (Both Guitars)

(Young and I'm Hopeless...)
[ Tab from: http://www.guitaretab.com/g/good-charlotte/54900.html ]
e|----------------------------------|
B|----------------------------------|
G|---------5------------------------| (x 2)
D|-1-------5-------6-------88888888-|
A|-1-------3-------6-------88888888-|
D|-1---------------6-------88888888-|


Bridge

(I don't care, I don't care... Noooooooo)

Guitar 1
e|-------------------------|
B|-------------------------|
G|-55555-44444-3333333333--| << Pick This Part using these chords
D|-xxxxx-xxxxx-xxxxxxxxxx-- (repeat as needed)
A|-33333-22222-1111111111--|
D|-------------------------|
   ***** ***** **********


Guitar 2
e|-8---7---6-------8---7---| x 2
B|-------------------------|
D|-------------------------| Wait for guitar 1 to play through part
A|-------------------------| above once then come in with this
D|-------------------------|


Guitar 2
e|------------------------- x 2-|
B|------------------------------|
D|11111111----------------------|
A|11111111----------------------|
D|11111111----------------------|


Then this

Guitar 1
e|------------------------------------------------------------------|
B|------------------------------------------------------------------|
G|-44444------------------------------------------------------------|
D|-55555-44444-1111111-55555--44444-4444444-------------------------|
A|-33333-22222-1111111-33333--22222-2222222-------------------------|
D|-------------1111111----------------------------------------------|
   ***** ***** ******* ***** *****
Guitar 2
e|-------------------------|
B|-------------------------|
D|8888888888888888888888888
A|-------------------------|
D|-------------------------|


Bridge

(Both Guitars)


Ending Chorus (Both Guitars)

e|-----------------------------------------------------------------|
B|-----------------------------------------------------------------|
G|----------55555555----------------------------55555555-----------|
D|-11111111-55555555-66666666-8888888--11111111-55555555-66666666--|
A|-11111111-33333333-66666666-8888888--11111111-33333333-66666666--|
D|-11111111----------66666666-8888888--11111111----------66666666--|


e|--------------|
B|--------------|
G|--------------|
D|-88888888-----|
A|-88888888-----|
D|-88888888-----|




Outro (Both Guitars)

(I dont care, I dont care...[repeat as many times as wanted])

e|----------------------------------------------------|
B|----------------------------------------------------|
G|-88888-------------88888-------------8--------------| (let last three
D|-88888-99999-11111-88888-99999-11111-8-9-1----------|  chords ring)
A|-66666-99999-11111-66666-99999-11111-6-9-1----------|
D|-------99999-11111-------99999-11111---9-1----------|


LYRICS
The Young & The Hopeless

Verse 1:
Hard days made me, hard nights shaped me
I don't know they somehow saved me
And I know I'm making something out of this life they called nothing
I take what I want
Take what I need
They say it's wrong, it's alright for me
I won't look down
Won't say I'm sorry
I know that only God can judge me

Prechourus 1:
And if I make it thru today will tomorrow be the same
Am I just running in place?
If I stumble and I fall
Should I get up and carry on or will it all just be the same

Chorus 1:
'Cause, I'm young and hopeless
Lost and I know this
I'm going nowhere fast that's what they say
I'm troublesome, I've fallen
I'm angry at my father
It's me against this world and I don't care, I don't care

Verse 2:
No one in this industry understands the life I lead
When I sing about my past, it's not a gimmick not an act
These critics and these trust fund kids
Try to tell me what punk is but when I see them on the streets
They got nothing to say

Prechourus 2:
And if I make it thru today will tomorrow be the same
am I just running in place?
If I stumble and I fall
should I get up and carry on or will it all just be the same

Chorus 2:
'Cause, I'm young and hopeless
I'm lost and I know this
I'm going nowhere fast that's what they say
I'm troublesome, I've fallen
I'm angry at my father
It's me against this world and I don't care

Bridge:
I don't care
I don't care, now I don't care

~~INSTRUMENTAL PART HERE~~

Young and hopeless
Lost and I know this
Going nowhere fast that's what they say
Troublesome, I've fallen
Angry at my father
It's me against this world and I don't care, I don't care
I don't care
I don't care
Related for The Young And The Hopeless Live tab