Song name
# A B C D E F G H I J K L M N O P Q R S T U V W X Y Z

Good Charlotte - Meet My Maker tab

----------------------------------------------------------------------------
	              Meet My Maker - Good Charlotte
----------------------------------------------------------------------------
Tabbed by:gergely

Tuning:Standard


Intro:Guitar1

e|4444444444444444333333333333333322222222222222220000000000000000|
H|----------------------------------------------------------------|
G|----------------------------------------------------------------|
D|----------------------------------------------------------------|
A|----------------------------------------------------------------|
E|----------------------------------------------------------------|

e|4444444444447777333333333333777722222222222277770-0-0-0-0-0-0-0-|
H|----------------------------------------------------------------|
G|----------------------------------------------------------------|
D|----------------------------------------------------------------|
A|----------------------------------------------------------------|
E|----------------------------------------------------------------|

e|0-0-0-0-0-0-|
H|------------|
G|------------|
D|------------|
A|------------|
E|------------|

Verses:Guitar2

e|----------------------------------------------------------------|
H|----------------------------------------------------------------|
G|----4-----4---4-----4-----4---4-----4-----4---4-----4-----4---4-| 4x
D|6-6---6-6---6---2-2---2-2---2---4-4---4-4---4---2-2---2-2---2---|
A|----------------------------------------------------------------|
E|----------------------------------------------------------------|

Pre-Chorus:Guitar2 (00:58) (01:06) (01:56) (02:04)
e|7----4----2-----|
h|----------------|
G|----------------| 2x
D|----------------|
A|----------------|
E|----------------|

Chorus:Guitar2
e|--------------------------------|
H|--------------------------------|
G|--------------------------------| 3x
D|6---6--69-9-9-9-2---2--24-4-4-4-|
A|6---6--69-9-9-9-2---2--24-4-4-4-|
E|4---4--47-7-7-7-0---0--02-2-2-2-|

e|--------------------------------|
H|--------------------------------|
G|--------------------------------|
D|6---6--69-9-9-9-2---------------|
A|6---6--69-9-9-9-2---------------|
E|4---4--47-7-7-7-0---------------|

Post-Chorus:Guitar1
e|----------------------------------------------------------------|
H|----2---------2---------2---------------------------------------|
G|4-------4-3-4-----4-3-4---4-3-1---------------------------------|
D|----------------------------------------------------------------|
A|----------------------------------------------------------------|
E|----------------------------------------------------------------|

Bridge-Part:Guitar2
e|--------|
H|--------|
G|--------| (12x)
D|6-6-46-6|
A|6-6-46-6|
E|4-4-24-4|

Bridge-Part:Guitar1
e|--------|
H|--------|
G|--------| (8x)
D|6-6-46-6|
A|6-6-46-6|
E|4-4-24-4|

Parts of the song: Intro
                   Verses
                   Pre-Chorus
                   Chorus 
                   Post-Chorus
                   Verses
                   Pre-Chotus
                   Chorus
                   Bridge-Part
                   Intro
                   Chorus
                   Outro
Tap to rate this tab
 
# A B C D E F G H I J K L M N O P Q R S T U V W X Y Z