Song name
# A B C D E F G H I J K L M N O P Q R S T U V W X Y Z

Good Charlotte - Flarier tab

lol this sounds really wierd on the guitar as its meant for the piano!

 |--10-9-10-9-10--5-8-6-3----3--6-----7-6-4-|
 |------------------------3--------3--------|
 |------------------------------------------| Repeat if wanted!
 |------------------------------------------|
 |------------------------------------------|
 |------------------------------------------|

 this is all it is...if you know the song you'll kno the exact tune.

 |--10-9-10-9-10--5-8-6-3----3--6-----7-6-4-|
 |------------------------3--------3--------|
 |------------------------------------------| 
 |------------------------------------------|
 |------------------------------------------|
 |------------------------------------------|
Tap to rate this tab
# A B C D E F G H I J K L M N O P Q R S T U V W X Y Z