Song name
# A B C D E F G H I J K L M N O P Q R S T U V W X Y Z

Good Charlotte - The Chronicles Of Life Death tab

Artist/Band - Good Charlotte
Album - The Chronicles Of Life & Death
Song - The Chronicles Of Life & Death


GUITAR:
======

Tuning: Standard (E A D G B E)

Key:
x  = Mute Strings
PM = Palm Mute
/  = Slide Upwards
\  = Slide Downwards

Intro:
E]--------------------------|
B]--------------------------|
G]--x--x--x--x--x--x--x--x--|
D]--x--x--x--x--x--x--x--x--|
A]--x--x--x--x--x--x--x--x--|
E]--x--x--x--x--x--x--x--x--|

Verse 1:
E]------------------------------------------------------------------|
B]------------------------------------------------------------------|
G]--3--3--3--3--x---------------------8--8--8--8--x--5--5--5--5--x--|
D]--4--4--4--4--x--10--10--10--10--x--9--9--9--9--x--6--6--6--6--x--|
A]--4--4--4--4--x--11--11--11--11--x--9--9--9--9--x--6--6--6--6--x--|
E]--2--2--2--2--x---8---8---8---8--x--7--7--7--7--x--4--4--4--4--x--|
PM  .  .  .  .  .   .   .   .   .  .  .  .  .  .  .  .  .  .  .  .

Pre-Chorus:
E]-------------------------------------------------------------------|
B]-------------------------------------------------------------------|
G]--3--3--3--3--3/---------------------8--8--8--8--x--5-5--5-5--5-5--|
D]--4--4--4--4--4/--10--10--10--10--x--9--9--9--9--x--6-6--6-6--6-6--|
A]--4--4--4--4--4/--11--11--11--11--x--9--9--9--9--x--6-6--6-6--6-6--|
E]--2--2--2--2--2/---8---8---8---8--x--7--7--7--7--x--4-4--4-4--4-4--|

E]-------------------------------------------------------------------|
B]-------------------------------------------------------------------|
G]--3--3--3--3--3/---------------------8--8--8--8--x--5-5--5-5--5-5--|
D]--4--4--4--4--4/--10--10--10--10--x--9--9--9--9--x--6-6--6-6--6-6--|
A]--4--4--4--4--4/--11--11--11--11--x--9--9--9--9--x--6-6--6-6--6-6--|
E]--2--2--2--2--2/---8---8---8---8--x--7--7--7--7--x--4-4--4-4--4-4--|

E]-----------------|
B]-----------------|
G]--4--------------|
D]--2----------4/--|
A]--2----------4/--|
E]--0----------2/--|

Chorus:
E]--------------------------------------------------------------------------|
B]------------------------------------11--11--11--11--x--11--11--11--11--x--|
G]--8--8--8--8--x--10--10--10--10--x--11--11--11--11--x---9---9---9---9--x--|
D]--9--9--9--9--x--11--11--11--11--x--11--11--11--11--x--11--11--11--11--x--|
A]--9--9--9--9--x--11--11--11--11--x---9---9---9---9--x---9---9---9---9--x--|
E]--7--7--7--7--x---9---9---9---9--x----------------------------------------|

E]--------------------------------------------------------------------------|
B]------------------------------------11--11--11--11--x--11--11--11--11--x--|
G]--8--8--8--8--x--10--10--10--10--x--11--11--11--11--x---9---9---9---9--x--|
D]--9--9--9--9--x--11--11--11--11--x--11--11--11--11--x--11--11--11--11--x--|
A]--9--9--9--9--x--11--11--11--11--x---9---9---9---9--x---9---9---9---9--x--|
E]--7--7--7--7--x---9---9---9---9--x----------------------------------------|

E]-----------------------------------------------------|
B]-----------------------------------------------------|
G]--8--8-8--8-8--8-8--8---10--10-10--10-10--10-10--10--|
D]--9--9-9--9-9--9-9--9---11--11-11--11-11--11-11--11--|
A]--9--9-9--9-9--9-9--9---11--11-11--11-11--11-11--11--|
E]--7--7-7--7-7--7-7--7----9---9--9---9--9---9--9---9--|

Verse 2:
E]---------------------------------------------------------------|
B]---------------------------------------------------------------|
G]--11------11---------------------------------------------------|
D]---x-------x------10------10------9------9------6-6--6-6--6-6--|
A]---9-------9-------x-------x------x------x------x-x--x-x--x-x--|
E]-------------------8-------8------7------7------4-4--4-4--4-4--|

E]---------------------------------------------------------------|
B]---------------------------------------------------------------|
G]--11------11---------------------------------------------------|
D]---x-------x------10------10------9------9------6-6--6-6--6-6--|
A]---9-------9-------x-------x------x------x------x-x--x-x--x-x--|
E]-------------------8-------8------7------7------4-4--4-4--4-4--|

Pre-Chorus:
E]-------------------------------------------------------------------|
B]-------------------------------------------------------------------|
G]--3--3--3--3--3/---------------------8--8--8--8--x--5-5--5-5--5-5--|
D]--4--4--4--4--4/--10--10--10--10--x--9--9--9--9--x--6-6--6-6--6-6--|
A]--4--4--4--4--4/--11--11--11--11--x--9--9--9--9--x--6-6--6-6--6-6--|
E]--2--2--2--2--2/---8---8---8---8--x--7--7--7--7--x--4-4--4-4--4-4--|

E]-------------------------------------------------------------------|
B]-------------------------------------------------------------------|
G]--3--3--3--3--3/---------------------8--8--8--8--x--5-5--5-5--5-5--|
D]--4--4--4--4--4/--10--10--10--10--x--9--9--9--9--x--6-6--6-6--6-6--|
A]--4--4--4--4--4/--11--11--11--11--x--9--9--9--9--x--6-6--6-6--6-6--|
E]--2--2--2--2--2/---8---8---8---8--x--7--7--7--7--x--4-4--4-4--4-4--|

E]-----------------|
B]-----------------|
G]--4--------------|
D]--2----------4/--|
A]--2----------4/--|
E]--0----------2/--|

Chorus:
E]--------------------------------------------------------------------------|
B]------------------------------------11--11--11--11--x--11--11--11--11--x--|
G]--8--8--8--8--x--10--10--10--10--x--11--11--11--11--x---9---9---9---9--x--|
D]--9--9--9--9--x--11--11--11--11--x--11--11--11--11--x--11--11--11--11--x--|
A]--9--9--9--9--x--11--11--11--11--x---9---9---9---9--x---9---9---9---9--x--|
E]--7--7--7--7--x---9---9---9---9--x----------------------------------------|

E]--------------------------------------------------------------------------|
B]------------------------------------11--11--11--11--x--11--11--11--11--x--|
G]--8--8--8--8--x--10--10--10--10--x--11--11--11--11--x---9---9---9---9--x--|
D]--9--9--9--9--x--11--11--11--11--x--11--11--11--11--x--11--11--11--11--x--|
A]--9--9--9--9--x--11--11--11--11--x---9---9---9---9--x---9---9---9---9--x--|
E]--7--7--7--7--x---9---9---9---9--x----------------------------------------|

E]-----------------------------------------------------|
B]-----------------------------------------------------|
G]--8--8-8--8-8--8-8--8---10--10-10--10-10--10-10--10--|
D]--9--9-9--9-9--9-9--9---11--11-11--11-11--11-11--11--|
A]--9--9-9--9-9--9-9--9---11--11-11--11-11--11-11--11--|
E]--7--7-7--7-7--7-7--7----9---9--9---9--9---9--9---9--|

Solo:
E]----------------------------------------------------------|
B]----------------------------------------------------------|
G]----------------------------------------------------------|
D]------8---6---4-------6---4---3-------4---3---1-----------|
A]--6---------------4---------------2---------------2---4/--|
E]----------------------------------------------------------|

E]----------------------------------------------------------|
B]----------------------------------------------------------|
G]----------------------------------------------------------|
D]------8---6---4-------6---4---3-------4---3---1-----------|
A]--6---------------4---------------2---------------2---4/--|
E]----------------------------------------------------------|

E]---------------------------------------------------------|
B]---------------------------------------------------------|
G]--8----11----10----11----8-----13----11----10----8----7--|
D]--x-----x-----x-----x----x-----11-----x-----x----x----x--|
A]--6-----9-----8-----9----6-----11-----9-----8----6----5--|
E]---------------------------------------------------------|

E]-----------------------------------------------------------|
B]-----------------------------------------------------------|
G]----------------------------------9-9-9-9-9-9-9-9-9-9-9-9--|
D]------8---6---4-------6---4---3---x-x-x-x-x-x-x-x-x-x-x-x--|
A]--6---------------4---------------7-7-7-7-7-7-7-7-7-7-7-7--|
E]-----------------------------------------------------------|

E]----------------------------------------|
B]----------------------------------------|
G]--13-13-13-13-13-13--16-16-16-16-16-16--|
D]---x--x--x--x--x--x---x--x--x--x--x--x--|
A]--11-11-11-11-11-11--14-14-14-14-14-14--|
E]----------------------------------------|

Final Chorus:
E]--14-----------------14---12---12-------------14----------------|
B]-------16------------12-------------12-------------14-------14--|
G]-----------16---13--------------------------------------15--14--|
D]-----------------------------------------16-----------------14--|
A]----------------------------------------------------------------|
E]----------------------------------------------------------------|

E]--x--x--x--x--x--x--|
B]--x--x--x--x--x--x--|
G]--x--x--x--x--x--x--|
D]--x--x--x--x--x--x--|
A]--x--x--x--x--x--x--|
E]--x--x--x--x--x--x--|

E]--------------------------------------------------------------------------|
B]------------------------------------11--11--11--11--x--11--11--11--11--x--|
G]--8--8--8--8--x--10--10--10--10--x--11--11--11--11--x---9---9---9---9--x--|
D]--9--9--9--9--x--11--11--11--11--x--11--11--11--11--x--11--11--11--11--x--|
A]--9--9--9--9--x--11--11--11--11--x---9---9---9---9--x---9---9---9---9--x--|
E]--7--7--7--7--x---9---9---9---9--x----------------------------------------|

E]--------------------------------------------------------------------------|
B]------------------------------------------------------11--------------11--|
G]--8--8-8--8-8--8-8--8---10--10-10--10-10--10-10--10---11--------------11--|
D]--9--9-9--9-9--9-9--9---11--11-11--11-11--11-11--11---11--------------11--|
A]--9--9-9--9-9--9-9--9---11--11-11--11-11--11-11--11----9---------------9--|
E]--7--7-7--7-7--7-7--7-----------------------------------------------------|

E]---------------------------------|
B]--11-11-11-11-11-11-11-11-11-11--|
G]--11-11-11-11-11-11-11-11-11-11--|
D]--11-11-11-11-11-11-11-11-11-11--|
A]---9--9--9--9--9--9--9--9--9--9--|
E]---------------------------------|

E]----------------------------------------------------------------------|
B]----------------------------------------------------------------------|
G]--8--8--8--8--x--10--10--10--10--x--8--8--8--8--x--10--10--10--10--x--|
D]--9--9--9--9--x--11--11--11--11--x--9--9--9--9--x--11--11--11--11--x--|
A]--9--9--9--9--x--11--11--11--11--x--9--9--9--9--x--11--11--11--11--x--|
E]--7--7--7--7--x---9---9---9---9--x--7--7--7--7--x---9---9---9---9--x--|

E]------------------------------------|
B]------------------------------------|
G]--8--8--8--8--x--10--10--10--10--x--|
D]--9--9--9--9--x--11--11--11--11--x--|
A]--9--9--9--9--x--11--11--11--11--x--|
E]--7--7--7--7--x---9---9---9---9--x--|

Outro:
E]--------------------------------------------------|
B]--------------------------------------------------|
G]--3--3--3--3-----------------------8--8--8--8--x--|
D]--4--4--4--4--4/10--10--10--10--x--9--9--9--9--x--|
A]--4--4--4--4--4/11--11--11--11--x--9--9--9--9--x--|
E]--2--2--2--2--2/-8---8---8---8--x--7--7--7--7--x--|

E]-------------------|
B]-------------------|
G]--5-5--5-5--5-5\4--|
D]--6-6--6-6--6-6\2--|
A]--6-6--6-6--6-6\2--|
E]--4-4--4-4--4-4\0--|

--------------------------------------------------------------------------------
Tap to rate this tab
# A B C D E F G H I J K L M N O P Q R S T U V W X Y Z