Guitaretab - guitar tabs
Song name
# A B C D E F G H I J K L M N O P Q R S T U V W X Y Z

Good Charlotte - Keep Your Hands Off My Girl tab

-------------------------------------------------------------------------------
                    Keep Your Hand Off My Girl - Good Charlotte
-------------------------------------------------------------------------------

THIS IS MY FIRST EVER TAB HOPE YOU LIKE IT!!

Tabbed by: 1000storeys

Tuning: Drop D (D A D G B e)

BASS RIFF INTRO (NORMAL TUNING FOR BASS RIFF ONLY!)
G|----------------------------|
D|----------------------------|   x10
A|-------------------5-5-5----|
E|---4-4-4-4-4-4-4------------|

GUITAR RIFF
e|--------------------------------|
B|--------------------------------|
G|--------------------------------|   x2
D|--------------------------------|
A|-------7-----6------------------|
D|----6-----6-----6-6-6-6-6-9-6---|

CHORUS
e|----------------------------------------|--------------------------|
B|----------------------------------------|--------------------------|
G|----------------------------------------|-------------9-9-9-9------|   x3
D|----2-2-2-2-2-2-2-2----4-4-4-4-4-4-4-4--|--6-6-6-6----9-9-9-9--x2--|
A|----2-2-2-2-2-2-2-2----4-4-4-4-4-4-4-4--|--6-6-6-6----7-7-7-7------|
D|----2-2-2-2-2-2-2-2----4-4-4-4-4-4-4-4--|--6-6-6-6-----------------|
LAST TIME ROUND YOU PLAY THIS
e|-------------------------------------------------------------------------|
B|-------------------------------------------------------------------------|
G|-------------------------------------------------------------------------|
D|2-2-2-2-2-2-2-2--4-4-4-4-4-4-4-4--1-1-1-1-1-1-1-1/13-13-13-13-13-13-13-13|
A|2-2-2-2-2-2-2-2--4-4-4-4-4-4-4-4--1-1-1-1-1-1-1-1/13-13-13-13-13-13-13-13|
D|2-2-2-2-2-2-2-2--4-4-4-4-4-4-4-4--1-1-1-1-1-1-1-1/13-13-13-13-13-13-13-13|

BASS RIFF AGAIN
G|----------------------------|
D|----------------------------|   x5
A|-------------------5-5-5----|
E|---4-4-4-4-4-4-4------------|

GUITAR RIFF
e|--------------------------------|
B|--------------------------------|
G|--------------------------------|   x2
D|--------------------------------|
A|-------7-----6------------------|
D|----6-----6-----6-6-6-6-6-9-6---|

CHORUS
e|----------------------------------------|--------------------------|
B|----------------------------------------|--------------------------|
G|----------------------------------------|-------------9-9-9-9------|   x3
D|----2-2-2-2-2-2-2-2----4-4-4-4-4-4-4-4--|--6-6-6-6----9-9-9-9--x2--|
A|----2-2-2-2-2-2-2-2----4-4-4-4-4-4-4-4--|--6-6-6-6----7-7-7-7------|
D|----2-2-2-2-2-2-2-2----4-4-4-4-4-4-4-4--|--6-6-6-6-----------------|
LAST TIME ROUND YOU PLAY THIS
e|-------------------------------------------------------------------------|
B|-------------------------------------------------------------------------|
G|-------------------------------------------------------------------------|
D|2-2-2-2-2-2-2-2--4-4-4-4-4-4-4-4--1-1-1-1-1-1-1-1/13-13-13-13-13-13-13-13|
A|2-2-2-2-2-2-2-2--4-4-4-4-4-4-4-4--1-1-1-1-1-1-1-1/13-13-13-13-13-13-13-13|
D|2-2-2-2-2-2-2-2--4-4-4-4-4-4-4-4--1-1-1-1-1-1-1-1/13-13-13-13-13-13-13-13|
[ Tab from: http://www.guitaretab.com/g/good-charlotte/78625.html ]
SOLO/BRIDGE
e|------------------------------------------------------------------|
B|------------------------------------------------------------------|
G|------------------------------------------------------------------|
D|------------------------------------------------------------------|
A|-------------4-5-5-4-5-5-4-5-7-7-7-7-7-7-7-7\4-4-4-4-4-4-4-4------|
D|--6-6-9-6-9-------------------------------------------------------|

e|------------------------------------------------------------------|
B|------------------------------------------------------------------|
G|------------------------------------------------------------------|
D|------------------------------------------------------------------|
A|-------------4-5-5-4-5-5-4-5-7-7-7-7-7-7-7-7/9-9-9-9-7-7-6-6------|
D|--6-6-9-6-9-------------------------------------------------------|

e|------------------------------------------------------------------|
B|------------------------------------------------------------------|
G|------------------------------------------------------------------|
D|------------------------------------------------------------------|
A|-------------4-5-5-4-5-5-4-5-7-7-7-7-7-7-7-7\4-4-4-4-4-4-4-4------|
D|--6-6-9-6-9-------------------------------------------------------|

e|---------------------------------------------------------------------------|
B|---------------------------------------------------------------------------|
G|---------------------------------------------------------------------------|
D|---------------------------------------------------------------------------|
A|-----------4-5-5-4-5-5-4-5-7-7-7-7-7-7-7-7/9-9-9-9-9-9-9-9-9-9-9-9-9-9-9-9-|
D|--6-6-9-6-9----------------------------------------------------------------|

CHORUS
e|----------------------------------------|--------------------------|
B|----------------------------------------|--------------------------|
G|----------------------------------------|-------------9-9-9-9------|   x3
D|----2-2-2-2-2-2-2-2----4-4-4-4-4-4-4-4--|--6-6-6-6----9-9-9-9--x2--|
A|----2-2-2-2-2-2-2-2----4-4-4-4-4-4-4-4--|--6-6-6-6----7-7-7-7------|
D|----2-2-2-2-2-2-2-2----4-4-4-4-4-4-4-4--|--6-6-6-6-----------------|
LAST TIME ROUND YOU PLAY THIS
e|-------------------------------------------------------------------------|
B|-------------------------------------------------------------------------|
G|-------------------------------------------------------------------------|
D|2-2-2-2-2-2-2-2--4-4-4-4-4-4-4-4--1-1-1-1-1-1-1-1/13-13-13-13-13-13-13-13|
A|2-2-2-2-2-2-2-2--4-4-4-4-4-4-4-4--1-1-1-1-1-1-1-1/13-13-13-13-13-13-13-13|
D|2-2-2-2-2-2-2-2--4-4-4-4-4-4-4-4--1-1-1-1-1-1-1-1/13-13-13-13-13-13-13-13|

BASS RIFF TO FINISH
G|----------------------------|
D|----------------------------|   x5
A|-------------------5-5-5----|
E|---4-4-4-4-4-4-4------------|

FINISHING CHORD!
e|--------|
B|--------|
G|--------|
D|--6/0---|
A|--6/0---|
D|--6/0---|


BASS INTRO
GUITAR RIFF
CHORUS
BASS RIFF
GUITAR RIFF
CHORUS
SOLO/BRIDGE
CHORUS
BASS RIFF
FINISHING CHORD

| /  slide up
| \  slide down
| h  hammer-on
| p  pull-off
| ~  vibrato
| +  harmonic
| x  Mute note

REMEMBER ALL GUITAR PARTS ARE IN DROP D... ALL BASS PARTS(TO BE PLAYED ON BASS) ARE IN 
BASS TUNING!!!!! THANKS
===============================================================================
Related for Keep Your Hands Off My Girl tab
Advertisement will be closed in 10 seconds