Guitaretab - guitar tabs
Song name
# A B C D E F G H I J K L M N O P Q R S T U V W X Y Z

Good Charlotte - March On tab

------------------------------------------------------------------|
---------------------------MARCH ON-------------------------------|
------------------------------------------------------------------|


those are my first published tabs. they should be quite good. it also sounds pretty 
in case there's something you don't like or if you can give me some tips how to improve, 
send me an email to: oggi_rasenmaeher18@hotmail.de

the 2nd chorus is a little tricky, but you can check out the following link to hear the 
the way good charlotte plays it:

http://www.youtube.com/watch?v=Ks-NN0rYcDI&feature=related

other than that: Have fun playing


              Don't    cry          Open up your eyes and know
Eb|--------------------------------------------------------------|
Bb|-------0----0---------0----0----------------------------------|
Gb|-----7----7----7----7----7----7-----0----0--------------------|
Db|---5----5----5 ---4----4 ---4-----9----9----9------7----7---7-|
Ab|--------------------------------7----7----7-----5-5--5-5--5---|
Eb|--------------------------------------------------------------|

    There's someone else out there that feels this way
Eb|-----------------------------------------------------0--------|
Bb|-------------------------------------0----0--------0-----0---0|
Gb|------0----0-----------------------7----7----7---7-----7---7--|
Db|----5----5----5-----7----7--7---5----5-----5----5-------------|
Ab|--3----3----3----5-5--5-5--5----------------------------------|
Eb|--------------------------------------------------------------|

           I'm singing to you 'cause I know what you've been through and now
Eb|--------------------------------------------------------------|
Bb|-------0----0---------0----0----------------------------------|
Gb|-----7----7----7----7----7----7-----0----0--------------------|
Db|---5----5----5 ---4----4 ---4-----9----9----9------7----7---7-|
Ab|--------------------------------7----7----7-----5-5--5-5--5---|
Eb|--------------------------------------------------------------|

     it's not so long ago I felt the same
Eb|-----------------------------------------------------0--------|
Bb|-------------------------------------0----0--------0-----0---0|
Gb|------0----0-----------------------7----7----7---7-----7---7--|
Db|----5----5----5-----7----7--7---5----5-----5----5-------------|
Ab|--3----3----3----5-5--5-5--5----------------------------------|
Eb|--------------------------------------------------------------|

          Like soldiers            march on    if we can make it through the
Eb|--------------------------------------------------------------|
Bb|--------------------------------------------------------------|
Gb|------------------------------------------------7-----7---7---|
Db|--------5------5---5--------7-----7---7-----5-5---5-5---5-----|
Ab|----3-3----3-3---3------5-5---5-5---5-------------------------|
Eb|--------------------------------------------------------------|


     night We'll see the sun           march on         march on
Eb|--------------------------------------------------------------|
Bb|--------------------------------------------------------------|
Gb|--------------------------------------------------------------|
Db|--------7-----7----7--------5-----5---5---------7-----7---7---|
Ab|----4-4----4-4---4-----3-3---3-3----3------5-5---5-5----5-----|
Eb|--------------------------------------------------------------|


Eb|----------------------0--------|
Bb|------0----0--------0-----0---0|
Gb|----7----7----7---7-----7---7--|
Db|-5----5-----5----5-------------|
Ab|-------------------------------|
Eb|-------------------------------|


              And I remember summer nights alone,the fireflies the only thing
Eb|--------------------------------------------------------------|
Bb|-------0----0---------0----0----------------------------------|
Gb|-----7----7----7----7----7----7-----0----0--------------------|
Db|---5----5----5 ---4----4 ---4-----9----9----9------7----7---7-|
Ab|--------------------------------7----7----7-----5-5--5-5--5---|
Eb|--------------------------------------------------------------|

   we own Yeah, all we had were dreams of California
Eb|-----------------------------------------------------0--------|
Bb|-------------------------------------0----0--------0-----0---0|
Gb|------0----0-----------------------7----7----7---7-----7---7--|
Db|----5----5----5-----7----7--7---5----5-----5----5-------------|
Ab|--3----3----3----5-5--5-5--5----------------------------------|
Eb|--------------------------------------------------------------|

            and I remember winters were so cold, Hunger was the only thing
Eb|--------------------------------------------------------------|
Bb|-------0----0---------0----0----------------------------------|
Gb|-----7----7----7----7----7----7-----0----0--------------------|
Db|---5----5----5 ---4----4 ---4-----9----9----9------7----7---7-|
Ab|--------------------------------7----7----7-----5-5--5-5--5---|
Eb|--------------------------------------------------------------|

   we know and rock'n'rolls dreamin' was what saved us
Eb|-----------------------------------------------------0--------|
Bb|-------------------------------------0----0--------0-----0---0|
Gb|------0----0-----------------------7----7----7---7-----7---7--|
Db|----5----5----5-----7----7--7---5----5-----5----5-------------|
Ab|--3----3----3----5-5--5-5--5----------------------------------|
Eb|--------------------------------------------------------------|
[ Tab from: http://www.guitaretab.com/g/good-charlotte/86505.html ]
          Like soldiers             march on    if we can make it through the
Eb|--------------------------------------------------------------|
Bb|--------------------------------------------------------------|
Gb|------------------------------------------7--7--7--7--7--7--7-|
Db|--------5------5---5--------7-----7---7---5--5--5--5--5--5--5-|
Ab|----3-3----3-3---3------5-5---5-5---5-------------------------|
Eb|--------------------------------------------------------------|

    night   We'll   see   the   sun                           march on
Eb|-------------------------------------------------------------|
Bb|-------------------------------------------------------------|
Gb|--7-7--------------------------------------------------------|
Db|--5-5-7--7--7--7--7--7--7---7-7-5--5--5--5--5--5--5---5-5-7--|
Ab|------4--4--4--4--4--4--4---4-4-3--3--3--3--3--3--3---3-5-5--|
Eb|-------------------------------------------------------------|


                   march on
Eb|--------------------------------------------------------------|
Bb|--------------------------------------------------------------|
Gb|--------------------------------------------------------------|
Db|7--7--7--7--7--7---7-7----------------------------------------|
Ab|5--5--5--5--5--5---5-5-5--5--5--5--5--5--5--5-5-5--5--5--5--5-|
Eb|-----------------------3--3--3--3--3--3--3--3-3-3--3--3--3--3-|

               [Em]   Till we   [D]see      the[C]sun,    march on
Eb|------------0----0----0--0-0-2----2----2--2-2-0----0----0--0-0|
Bb|------------0----0----0--0-0-3----3----3--3-3-1----1----1--1-1|
Gb|------------0----0----0--0-0-2----2----2--2-2-0----0----0--0-0|
Db|------------2----2----2--2-2-0----0----0--0-0-2----2----2--2-2|
Ab|-5--5---5-5-2----2----2--2-2------------------3----3----3--3-3|
Eb|-3-3---3-3-0----0----0--0-0----------------------------------|

                     [Em]   till we   [D]  see      the
Eb|-0----0----0--0-0-0----0----0--0-0-2----2----2--2-2-|
Bb|-1----1----1--1-1-0----0----0--0-0-3----3----3--3-3-|
Gb|-0----0----0--0-0-0----0----0--0-0-2----2----2--2-2-|
Db|-2----2----2--2-2-2----2----2--2-2-0----0----0--0-0-|
Ab|-3----3----3--3-3-2----2----2--2-2------------------|
Eb|------------------0----0----0--0-0------------------|

  [C]sun                           through the
Eb|0----0----0--0-0--0--0--0--0--0--0--0--0--|
Bb|1----1----1--1-1--1--1--1--1--1--1--1--1--|
Gb|0----0----0--0-0--0--0--0--0--0--0--0--0--|
Db|2----2----2--2-2--2--2--2--2--2--2--2--2--|
Ab|3----3----3--3-3--3--3--3--3--3--3--3--3--|
Eb|------------------------------------------|


 [Em]good times,    through[D] the bad times,      through the
Eb|0--0--0--0--0--0--0--0--2--2--2--2--2--2--2--2--|
Bb|0--0--0--0--0--0--0--0--3--3--3--3--3--3--3--3--|
Gb|0--0--0--0--0--0--0--0--2--2--2--2--2--2--2--2--|
Db|2--2--2--2--2--2--2--2--0--0--0--0--0--0--0--0--|
Ab|2--2--2--2--2--2--2--2--------------------------|
Eb|0-0--0--0--0--0--0--0--------------------------|

  [C]long  days,  through  the   hard   nights,       keep
Eb|0--0--0--0--0--0--0--0--0--0--0--0--0--0--0--0--|
Bb|1--1--1--1--1--1--1--1--1--1--1--1--1--1--1--1--|
Gb|0--0--0--0--0--0--0--0--0--0--0--0--0--0--0--0--|
Db|2--2--2--2--2--2--2--2--2--2--2--2--2--2--2--2--|
Ab|3--3--3--3--3--3--3--3--3--3--3--3--3--3--3--3--|
Eb|------------------------------------------------|

  [Em]on     till[D] we  see   [C]    the  sun
Eb|0----0----0---2----2----2---3----3----3---3----3----3-|
Gb|0----0----0---3----3----3---1----1----1---1----1----1-|
Db|0----0----0---2----2----2---0----0----0---0----0----0-|
Db|2----2----2---0----0----0---2----2----2---2----2----2-|
Ab|2----2----2-----------------3----3----3---3----3----3-|
Eb|0----0----0-------------------------------------------|


          Like soldiers              march on    if we can make it through the
Eb|-------------------------------------------------------------|
Bb|-------------------------------------------------------------|
Gb|-----------------------------------------------7-----7---7---|
Db|-------5------5---5--------7-----7---7-----5-5---5-5---5-----|
Ab|---3-3----3-3---3------5-5---5-5---5-------------------------|
Eb|-------------------------------------------------------------|


     night We'll see the sun           march on         march on
Eb|--------------------------------------------------------------|
Bb|--------------------------------------------------------------|
Gb|--------------------------------------------------------------|
Db|--------7-----7----7--------5-----5---5---------7-----7---7---|
Ab|----4-4----4-4---4-----3-3---3-3----3------5-5---5-5----5-----|
Eb|--------------------------------------------------------------|

   Like soldiers        march on         if we can make it through the
Eb|------------------------------------------------|
Bb|------------------------------------------------|
Gb|------------------------------------------------|
Db|5-5-5-5-5-5-5-5-7-7-7-7-7-7-7-7-----------------|
Ab|3-3-3-3-3-3-3-3-5-5-5-5-5-5-5-5-5-5-5-5-5-5-5-5-|
Eb|--------------------------------3-3-3-3-3-3-3-3-|

   night We'll see the sun        march on      march on
Eb|------------------------------------------------|
Bb|------------------------------------------------|
Gb|------------------------------------------------|
Db|7-7-7-7-7-7-7-7-5-5-5-5-5-5-5-5-7-7-7-7-7-7-7-7-|
Ab|4-4-4-4-4-4-4-4-3-3-3-3-3-3-3-3-5-5-5-5-5-5-5-5-|
Eb|------------------------------------------------|


    Even when there's no one there for you, march
Eb|--------------------------------|
Bb|--------------------------------|
Gb|--------------------------------|
Db|5-5-5-5-5-5-5-5-7-7-7-7-7-7-7-7-|
Ab|3-3-3-3-3-3-3-3-5-5-5-5-5-5-5-5-|
Eb|--------------------------------|

    on, even when the days are long for you march
Eb|--------------------------------|
Bb|--------------------------------|
Gb|--------------------------------|
Db|5-5-5-5-5-5-5-5-7-7-7-7-7-7-7-7-|
Ab|3-3-3-3-3-3-3-3-5-5-5-5-5-5-5-5-|
Eb|--------------------------------|

    on, like soldiers,         march on
Eb|--------------------------------------------------------------|
Bb|--------------------------------------------------------------|
Gb|--------------------------------------------------------------|
Db|5-5-5-5-5-5-5-5-7-7-7-7-7-7-7-7-------------------------------|
Ab|3-3-3-3-3-3-3-3-5-5-5-5-5-5-5-5-5-----------------------------|
Eb|--------------------------------3-----------------------------|
Related for March On tab