Song name
# A B C D E F G H I J K L M N O P Q R S T U V W X Y Z

Good Charlotte - Good Morning Revival tab

Artist: Good Charlotte
Album: Good Morning Revival
Tracks:
1.Good Morning Revival
2.Misery
3.The River
4.Dance Floor Anthem
5.Keep Your Hands Off My Girl
6.Victims Of Love
7.Where Would We Be?
8.Break Apart Her Heart
9.All Black
10.Beautifal Place
11.Something Else
12.Broken Hearts Parade
13.March On
Year: 2007
Note: These tabs are all from different people they're not all by me.
                      Tabs:

1.Good Morning Revival:

No guitar


2.Misery:


INTRO

Keyboard Part On Guitar (With Delay Effect)
E--------------------|
B---19--19--19--19---|
G--------------------|  x5
D-18--18--18--18--18-|
A--------------------|
E--------------------|

Keyboard Part is played twice, then both Guitars come in.

Guitar 1
E-----------------|-----------------|
B-----------------|-----------------|
G-----------------|-----------------|
D-6-6-6-6-6-6-6-6-|-2-2-2-2-2-2-2-2-|
A-6-6-6-6-6-6-6-6-|-2-2-2-2-2-2-2-2-|
E-4-4-4-4-4-4-4-4-|-0-0-0-0-0-0-0-0-|
                                         x2
E-----------------|-----------------|
B-----------------|-----------------|  
G-4-4-4-4-4-4-4-4-|-----------------|
D-4-4-4-4-4-4-4-4-|-4-4-4-4-4-4-4-4-|
A-2-2-2-2-2-2-2-2-|-4-4-4-4-4-4-4-4-|
E-----------------|-2-2-2-2-2-2-2-2-|

Guitar 2
E-------|-------|------|--------|-------|-------|------|------|
B-------|-------|------|--------|-------|-------|------|------|
G-13----|-13----|-11---|-11---8-|-13----|-13----|-11---|-11---|
D-x-----|-x-----|-x----|-x----x-|-x-----|-x-----|-x----|-x----|
A-11----|-11----|-9----|-9----6-|-11----|-11----|-9----|-9----|
E-------|-------|------|--------|-------|-------|------|------|


VERSE

Guitar 1
E-------------------|       
B-------------------|  x4   
G-------------------|         
D------4-8----------|      
A-6----2-6-2----4-4-|      
E-4--------0----2-2-|       

Guitar 2
E-------------------|
B-------------------|  x4
G-13----13-13-------|        
D-x-----x--x--------|
A-11----11-11-------|
E-------------------|


PRE CHORUS

Guitar 1
E------------|-----------------|
B------------|-----------------|   x3
G------------|-----------------|       
D-9-9----9-9-|-/11-11----11-11-|
A-7-7----7-7-|-/9--9-----9--9--|
E------------|-----------------|

E----------------------------------|
B----------------------------------|    
G----------------------------------|        
D-9-9----9-9-11-11-11-11-11-11-11--|
A-7-7----7-7-9--9--9--9--9--9--9---|
E----------------------------------|

Keyboard Part on Guitar
E-------------|
B---19/21-----|   x2
G-------------|   
D-18----------|
A-------------|
E-------------|


CHORUS

Guitar 1
E-----------------|-----------------|
B-----------------|-----------------|
G-----------------|-----------------|
D-6-6-6-6-6-6-6-6-|-2-2-2-2-2-2-2-2-|
A-6-6-6-6-6-6-6-6-|-2-2-2-2-2-2-2-2-|
E-4-4-4-4-4-4-4-4-|-0-0-0-0-0-0-0-0-|
                                        x2
E-----------------|-----------------|
B-----------------|-----------------|  
G-4-4-4-4-4-4-4-4-|-----------------|
D-4-4-4-4-4-4-4-4-|-4-4-4-4-4-4-4-4-|
A-2-2-2-2-2-2-2-2-|-4-4-4-4-4-4-4-4-|
E-----------------|-2-2-2-2-2-2-2-2-|

Guitar 2
E-------|-------|------|------|-------|-------|------|------|
B-------|-------|------|------|-------|-------|------|------|
G-13----|-13----|-11---|-11---|-13----|-13----|-11---|-11---|
D-x-----|-x-----|-x----|-x----|-x-----|-x-----|-x----|-x----|
A-11----|-11----|-9----|-9----|-11----|-11----|-9----|-9----|
E-------|-------|------|------|-------|-------|------|------|


POST CHORUS

E-----------------|-----------------|
B-----------------|-----------------|  x2
G-----------------|-4-4-x-x-x-x-----|   
D-6-6-x-x-x-x-2-2-|-4-4-x-x-x-x-4-4-|
A-6-6-x-x-x-x-2-2-|-2-2-x-x-x-x-4-4-|
E-4-4-x-x-x-x-0-0-|-------------2-2-|


<>


BRIDGE 1

E---------|-----------------|        
B---------|-----------------|  x3    
G---------|-----------------|        
D---------|-4-4-4-4/8-8-8-8-|      
A-6\------|-2-2-2-2/6-6-6-6-|        
E-4\------|-----------------|        

E-----------------|-------------------------|        
B-----------------|-------------------------|    
G-----------------|-------------------------|        
D-9-9-9-9-9-9-9-9-|-11-11-11-11-11-11-11-11-|      
A-7-7-7-7-7-7-7-7-|-9--9--9--9--9--9--9--9--|        
E-----------------|-------------------------| 


SOLO  

Guitar 1
E-------------------------|       |-^21-^21-^21--^21--^21-^21-------|
B-21-21-21~--21~-21-21-19-|  x2   |---------------------------------|
G-------------------------|       |----------------------------^21\-|
D-------------------------|       |---------------------------------|
A-------------------------|       |---------------------------------|
E-------------------------|       |---------------------------------|

E-------------------------|       |--------------------------|
B-21-21-21~--21~-21-21-19-|  x2   |--------------------------|
G-------------------------|       |-18-20-21-20--------------|
D-------------------------|       |-------------18-19-20-18~-|
A-------------------------|       |--------------------------|
E-------------------------|       |--------------------------|


Guitar 2
E-----------------|-----------------|
B-----------------|-----------------|   
G-------------4-4-|-6-6-x-x-x-x-8-8-|
D-6-6-x-x-x-x-4-4-|-6-6-x-x-x-x-8-8-|
A-6-6-x-x-x-x-2-2-|-4-4-x-x-x-x-6-6-|
E-4-4-x-x-x-x-----|-----------------|
                                        x2
E-----------------|-----------------| 
B-----------------|-----------------|    
G-------------6-6-|-4-4-x-x-x-x-8-8-| 
D-6-6-x-x-x-x-6-6-|-4-4-x-x-x-x-8-8-|
A-6-6-x-x-x-x-4-4-|-2-2-x-x-x-x-6-6-|
E-4-4-x-x-x-x-----|-----------------|


BRIDGE 2

E-----------------|-----------------|-----------------|        
B-----------------|-----------------|-----------------|    
G-----------------|-----------------|-----------------|        
D-2-2-2-2-2-2-2-2-|-2-2-2-2-2-2-2-2-|-6-6-6-6-6-6-6-6-|      
A-2-2-2-2-2-2-2-2-|-2-2-2-2-2-2-2-2-|-6-6-6-6-6-6-6-6-|        
E-0-0-0-0-0-0-0-0-|-0-0-0-0-0-0-0-0-|-4-4-4-4-4-4-4-4-| 


<>


 END ON
E-------|
B-------|   
G-6\----|   
D-6\----|
A-4\----|
E-------|



3.The River:


INTRO

Guitar 1
Eb|---------------------------------------------------------------------|
Bb|---------------------------------------------------------------------|
Gb|-4444444455555555444444442222222244444444555555557777777777777777-9\-|
Db|-2222222222222222222222222222222222222222222222225555555555555555-7\-|
Ab|---------------------------------------------------------------------|
Eb|---------------------------------------------------------------------|

Guitar 2
Eb|----------|----------|----------|----------|     |-----|
Bb|----------|----------|----------|----------| x2  |-----|
Gb|-44444444-|-55555555-|----------|----------|     |--9\-| 
Db|-44444444-|-55555555-|-55555555-|-77777777-|     |--9\-|
Ab|-22222222-|-33333333-|-55555555-|-77777777-|     |--7\-|
Eb|----------|----------|-33333333-|-55555555-|     |-----|


VERSE

    .. .. . .. .. .    . .   . ..  ... .. .
Eb|------------------|-----------------------| 
Bb|------------------|-----------------------| x3
Gb|------------------|-----------------------| 
Db|---9--9-9--9--9-9-|-----12----12---9--9-9-|
Ab|-77-77-7-77-77-7--|-1010--1099--977-77-7--|
Eb|------------------|-----------------------|
    .. .. . .. .. .    . .   . ..  ... .. .
 
    .. .. . .. .. . 
Eb|------------------|------------------|----------| 
Bb|------------------|------------------|----------| 
Gb|------------------|-1212121211111111-|-99999999-| 
Db|---9--9-9--9--9-9-|-x-x-x-x-x-x-x-x--|-xxxxxxxx-|
Ab|-77-77-7-77-77-7--|-101010109-9-9-9--|-77777777-|
Eb|------------------|------------------|----------|
    .. .. . .. .. . 


PRE CHORUS
    .. .. . .. .. .    .. .. . .. .. .
Eb|------------------|------------------| 
Bb|------------------|------------------| 
Gb|---7--7-7--7--7-7-|---9--9-9--9--9-9-|
Db|-55-55-5-55-55-5--|-77-77-7-77-77-7--|
Ab|------------------|------------------|
Eb|------------------|------------------|
    .. .. . .. .. .    .. .. . .. .. .

Guitar 1
Eb|----------|----------|----------|----------|
Bb|----------|----------|----------|----------|   
Gb|----------|----------|----------|----------|     
Db|-55555555-|-55555555-|-77777777-|-77777777-|
Ab|-55555555-|-55555555-|-77777777-|-77777777-|
Eb|-33333333-|-33333333-|-55555555-|-55555555-|

A Second Guitar can Slightly Be heard
which plays:

Eb|------12----|------12---|-----10-----|-----10---|
Bb|-8-10----10-|-8-10---10-|-5-8----8---|-5-8----8-|  x2
Gb|------------|-----------|------------|----------| 
Db|------------|-----------|------------|----------|
Ab|------------|-----------|------------|----------|
Eb|------------|-----------|------------|----------|


CHORUS

Guitar 1
Eb|----------|----------|----------|----------|
Bb|----------|----------|----------|----------| x4
Gb|----------|-55555555-|----------|----------| 
Db|-22222222-|-55555555-|-55555555-|-77777777-|
Ab|-22222222-|-33333333-|-55555555-|-77777777-|
Eb|-00000000-|----------|-33333333-|-55555555-|

Guitar 2
Eb|------12----|------12----|-----10---|-----7---|
Bb|-8-10----10-|-8-10----10-|-5-8----8-|-3-5---5-| x4
Gb|------------|------------|----------|---------| 
Db|------------|------------|----------|---------|
Ab|------------|------------|----------|---------|
Eb|------------|------------|----------|---------|


* Then Repeat the VERSE once then the PRE CHORUS + CHORUS twice,
  followed by the SOLO, which ends the song.


SOLO (Guitar 2 plays Chorus Riff for backing)

Guitar 1
Eb|-------------------------------|
Bb|-----------/21~----------------|   
Gb|-7>--------/19~----------------|     
Db|-5>----------------------------|
Ab|-------------------------------|
Eb|-------------------------------|

Eb|-----------------------------------------------------|
Bb|-------------------15--15-13-------------------------|   
Gb|-12-12-12-12p10-12--------------14\13/14\13-16-14\13-|     
Db|-----------------------------------------------------|
Ab|-----------------------------------------------------|
Eb|-----------------------------------------------------|

Eb|-------------------------------------------------------------|
Bb|-------------------15--15-13----19---------------------------|   
Gb|-12-12-12-12p10-12-----------------17-16-17-18-^19-^19-17----|     
Db|----------------------------------------------------------19-|
Ab|-------------------------------------------------------------|
Eb|-------------------------------------------------------------|

Eb|-------------------------------------------------------------|
Bb|----------------------------18--18--18--18--22--22-^22-19----|   
Gb|-17-15-14-------------14--14--14--14--14--19--19---------19~-|    
Db|----------15-16-14-15----------------------------------------|
Ab|-------------------------------------------------------------|
Eb|-------------------------------------------------------------|

Eb|------------------------------^18--14-15-14------------------|
Bb|-------------------------------------------15--14-15-14-17~\-|   
Gb|-^20-^20-^20-20-18-^22-----------------------14--------------|     
Db|------------------------19-19--------------------------------|
Ab|-------------------------------------------------------------|
Eb|-------------------------------------------------------------|


4.Dance Floor Anthem:


INTRO

Guitar 1
E-----------|-----------|-----------|---------------------|
B-----------|-----------|-----------|-****-****-----------|
G-3-3-3-----|-3-3-3-----|-3-3-3-----|-9999-7777-****-****-|
D-1-1-1-----|-1-1-1-----|-1-1-1-----|-----------9999-7777-|
A-----------|-----------|-----------|---------------------|
E-----------|-----------|-----------|---------------------|
                                         
E------------------|------------------|
B------------------|------------------|
G-16---20-18-16-15-|-16---20-18-16-18-|
D-x----x--x--x--x--|-x----x--x--x--x--|
A-14---18-16-14-13-|-14---18-16-14-16-|
E------------------|------------------|

Guitar 2 (comes in after harmonics)
E-----------------|      |-----------------|      |-----------------|
B-----------------|  x2  |-----------------|  x2  |-----------------|  x2
G-4-4-4-4-4-4-4-4-|      |-8-8-8-8-8-8-8-8-|      |-4-4-4-4-4-4-4-4-|
D-4-4-4-4-4-4-4-4-|      |-8-8-8-8-8-8-8-8-|      |-4-4-4-4-4-4-4-4-|
A-2-2-2-2-2-2-2-2-|      |-6-6-6-6-6-6-6-6-|      |-2-2-2-2-2-2-2-2-|
E-----------------|      |-----------------|      |-----------------| 

E-----------------|
B-----------------|
G-6-6-6-6-6-6-6-6-|
D-6-6-6-6-6-6-6-6-|
A-4-4-4-4-4-4-4-4-|
E-----------------| 

 
VERSE 1
            . . . . . . . .   . . . . . . . .   . . . . . . . .
E---------|-----------------|-----------------|-----------------|
B---------|-----------------|-----------------|-----------------|
G-8>------|-----------------|-----------------|-----------------|
D---------|-----------------|-----------------|-----------------|
A---------|-6-6-6-6-6-6-6-6-|-6-6-6-6-6-6-6-6-|-4-4-4-4-4-4-4-4-|
E---------|-----------------|-----------------|-----------------|
            . . . . . . . .   . . . . . . . .   . . . . . . . .
  . . . . . . . .   . . . . . . . .   . . . . . . . .
E-----------------|-----------------|-----------------|
B-----------------|-----------------|-----------------|
G-----------------|-----------------|-----------------|
D-----------------|-----------------|-----------------|
A-4-4-4-4-4-4-4-4-|-9-9-9-9-9-9-9-9-|-9-9-9-9-9-9-9-9-|
E-----------------|-----------------|-----------------|
  . . . . . . . .   . . . . . . . .   . . . . . . . .
  . . . . .   
E-------------------|
B-------------------|
G-------------------|
D-------------------|
A-----------99-11\--|
E-7-7-7-7-7-77-9-\--|
  . . . . . 


CHORUS

Guitar 1
E------------------|-------------|
B------------------|-------------|   x2
G-16---20-18-16-15-|-16----18----|
D-x----x--x--x--x--|-x-----x-----|
A-14---18-16-14-13-|-14----16----|
E------------------|-------------|

Guitar 2 
E-----------------|      |-----------------|        x3 
B-----------------|  x2  |-----------------|  x2  
G-4-4-4-4-4-4-4-4-|      |-8-8-8-8-8-8-8-8-|      
D-4-4-4-4-4-4-4-4-|      |-8-8-8-8-8-8-8-8-|      
A-2-2-2-2-2-2-2-2-|      |-6-6-6-6-6-6-6-6-|      
E-----------------|      |-----------------|      

E-----------------|
B-----------------|  x2
G-6-6-6-6-6-6-6-6-|
D-6-6-6-6-6-6-6-6-|
A-4-4-4-4-4-4-4-4-|
E-----------------|


POST CHORUS 1

E-----------|
B-----------|
G-----------|
D-8-8-8\----|
A-6-6-6\----|
E-----------|


VERSE 2

Guitar 1
  . . . . . . . .   . . . . . . . .   . . . . . . . .
E-----------------|-----------------|-----------------|
B-----------------|-----------------|-----------------|
G-----------------|-----------------|-----------------|
D-----------------|-----------------|-----------------|
A-6-6-6-6-6-6-6-6-|-6-6-6-6-6-6-6-6-|-4-4-4-4-4-4-4-4-|
E-----------------|-----------------|-----------------|
  . . . . . . . .   . . . . . . . .   . . . . . . . .
  . . . . . . . .   . . . . . . . .   . . . . . . . .
E-----------------|-----------------|-----------------|
B-----------------|-----------------|-----------------|
G-----------------|-----------------|-----------------|
D-----------------|-----------------|-----------------|
A-4-4-4-4-4-4-4-4-|-9-9-9-9-9-9-9-9-|-9-9-9-9-9-9-9-9-|
E-----------------|-----------------|-----------------|
  . . . . . . . .   . . . . . . . .   . . . . . . . .
  . . . . . . . .   . . . . . . . .   . . . . . . . .
E-----------------|-----------------|-----------------|
B-----------------|-----------------|-----------------|
G-----------------|-----------------|-----------------|
D-----------------|-----------------|-----------------|
A-----------------|-----------------|-6-6-6-6-6-6-6-6-|
E-7-7-7-7-7-7-7-7-|-7-7-7-7-7-7-7-7-|-----------------|
  . . . . . . . .   . . . . . . . .   . . . . . . . .
  . . . . . . . .   . . . . . . . .   . . . . . . . .
E-----------------|-----------------|-----------------|
B-----------------|-----------------|-----------------|
G-----------------|-----------------|-----------------|
D-----------------|-----------------|-----------------|
A-6-6-6-6-6-6-6-6-|-4-4-4-4-4-4-4-4-|-4-4-4-4-4-4-4-4-|
E-----------------|-----------------|-----------------|
  . . . . . . . .   . . . . . . . .   . . . . . . . .
  . . . . . . . .   . . . . . . . .   . . . . .
E-----------------|-----------------|-------------------|
B-----------------|-----------------|-------------------|
G-----------------|-----------------|-------------------|
D-----------------|-----------------|-------------------|
A-9-9-9-9-9-9-9-9-|-9-9-9-9-9-9-9-9-|-----------99-11\--|
E-----------------|-----------------|-7-7-7-7-7-77-9-\--|
  . . . . . . . .   . . . . . . . .   . . . . .


Guitar 2  (comes in halfway through Verse)
E----------------|---------------|---------------------|----------|
B----------------|---------------|---------------------|----------|
G----------------|---------------|---------------------|----------|
D-8-8---8---888--|-6-6---6---666-|-11-11---11---111111-|----------|
A-6-6---6---666--|-4-4---4---444-|-9--9----9----9-9-9--|-9-9------|
E----------------|---------------|---------------------|-7-7------|
 

<>


POST CHORUS 2

Guitar 1
E---------------------------|
B---------------------------|    x4
G-------------------13------|
D-/11-11-1111-11-11----11~\-|
A-/9--9--9-9--9--9----------|
E---------------------------|

Guitar 2
  ........
E----------|
B----------|  * Heard throughout Post Chorus
G-66666666-|
D----------|
A----------|
E----------|
  ........

BRIDGE

Guitar 1
  . . . . . . . .   . . . . . . . .
E-----------------|-----------------|
B-----------------|-----------------|   x3 
G-6-6-6-6-6-6-6---|-----------------|
D---------------6-|-6-6-6-8-8-8-8-8-|
A-----------------|-----------------|
E-----------------|-----------------|
  . . . . . . . .   . . . . . . . .

  . . . . . . . 
E-----------------|-----------------|
B-----------------|-----------------|    
G-6-6-6-6-6-6-6---|-----------------|
D---------------6-|-6-6-6-6-6-6-6-6-|
A---------------4-|-4-4-4-4-4-4-4-4-|
E-----------------|-----------------|
  . . . . . . . 

E----------------|---------------|----------------------|
B----------------|---------------|----------------------|
G----------------|---------------|----------------------|
D-8-8---88--888--|-6-6---66--666-|-11-11---1111--111111-|
A-6-6---66--666--|-4-4---44--444-|-9--9----9-9---9-9-9--|
E----------------|---------------|----------------------|

E--------------|
B--------------|
G--------------|
D--------------|
A-9-9--999-11\-|
E-7-7--777-9-\-|


<>


End On
E------------|
B------------|
G------------|
D-11\--------|
A-9-\--------|
E------------|


5.Keep Your Hands Off My Girl:


(Intro/verse)
e|---------------------------------------------------------------|
B|---------------------------------------------------------------|
G|---------------------------------------------------------------|
D|---------------------------------------------------------------|
A|-5---5-5---5-555--111111-----repeat through out whole verse----|
E|-3---3-3---3-333--9-9-9----------------------------------------|


(Pre-chorus)
e|-------------------------------------|
B|-------------------------------------|
G|-------------------------------------|
D|---8--- 7--------------6-------------|
A|-5-6--5-5--5-5---5-7-5-4-5----(x2)---|
E|-3----3----3-3---3-5-3---3-----------|


(Chorus)
e|----------------------------------------------|
B|----------------------------------------------|
G|----------------------------------------------|
D|----------------------------------------------|
A|-2222222244444444-6666-7777-6666-7777---(x3)--|
E|-0000000022222222-4444------4444--------------|

e|---------------------------------------|
B|---------------------------------------|
G|---------------------------------------|
D|---------------------------------------|
A|-2222222244444444-222222222-222222222--|
E|-0000000022222222-000000000-000000000--|


(Bridge)
e|-----------------------------------|
B|-----------------------------------|
G|-----------------------------------|
D|----4---7-88888888-----------------|
A|-66-2-6-5-66666666-99999996666666--|
E|-44---4------------77777774444444--|

e|---------------------------------------------------|
B|---------------------------------------------------|
G|---------------------------------------------------|
D|----4---7-88888888---------------------------------|
A|-66-2-6-5-66666666-999999911111111111111--(11's)---|
E|-44---4------------777777713131313131313--(13's)---|

e|-----------------------------------|
B|-----------------------------------|
G|-----------------------------------|
D|----4---7-88888888-----------------|
A|-66-2-6-5-66666666-99999996666666--|
E|-44---4------------77777774444444--|

e|---------------------------------------------------|
B|---------------------------------------------------|
G|---------------------------------------------------|
D|----4---7-88888888---------------------------------|
A|-66-2-6-5-66666666-999999911111111111111--(11's)---|
E|-44---4------------777777713131313131313--(13's)---|


(Outro/verse)
e|----------------------------------|
G|----------------------------------|
B|----------------------------------|
D|----------------------------------|
A|-5---5-5---5-555--111111---(x3)---|
E|-3---3-3---3-333--9-9-9-----------|


Order:
Intro/verse
Pre-chorus (x2)
Chorus
Verse
Pre-Chorus (x2)
Chorus
Bridge
Chorus
Outro/verse (x3)


6.Victims Of Love:


Intro:
-----------------------------------------|
-----------------------------------------|
--3------7------3------7------5----------|
--3------7------3------7------5----------|
--1------5------1------5------3----------|
-----------------------------------------|

------------------------------|
------------------------------|
--3------7------3------5------|
--3------7------3------5------|
--1------5------1------3------|
------------------------------|

chorus
-----------------------------|
-----------------------------|
--3------7------3------------|
--3------7------3------------|
--1------5------1------------|
-----------------------------|    x3

--------------------|
--------------------|
--3------5----------|
--3------5----------|
--1------3----------|
--------------------|

verse
-------------------------|
-------------------------|
--7---5------------------|
--7---5----5--8----------|
--5---3----5--8----------|
-----------3--6----------|    x4

chorus
-----------------------------|
-----------------------------|
--3------7------3------------|
--3------7------3------------|
--1------5------1------------|
-----------------------------|    x3

--------------------|
--------------------|
--3------5----------|
--3------5----------|
--1------3----------|
--------------------|

verse
-------------------------|
-------------------------|
--7---5------------------|
--7---5----5--8----------|
--5---3----5--8----------|
-----------3--6----------|    x4

bridge
-------------------------|
-------------------------|
--7----7-7-7-------------|
--x----x-x-x-------------|
--5----5-5-5-------------|        x2

chorus
-----------------------------|
-----------------------------|
--3------7------3------------|
--3------7------3------------|
--1------5------1------------|
-----------------------------|    x3

------------------------|
------------------------|
--3------5--------------|
--3------5--------------|
--1------3--------------|
------------------------|    x2

7.Where Would We Be?:


Part I

e|------15---------15---------15---------15----|
B|--17----17---17----17---17----17---17----17--|
G|----17---------17---------17---------17------|
D|---------------------------------------------|
A|---------------------------------------------|
E|---------------------------------------------|

e|------15---------15---------15---------15----|
B|--17----17---17----17---17----17---17----17--|
G|----16---------16---------16---------16------|
D|---------------------------------------------|
A|---------------------------------------------|
E|---------------------------------------------|

e|------17---------17---------17---------17----|
B|--18----18---18----18---18----18---18----18--|
G|----17---------17---------17---------17------|
D|---------------------------------------------|
A|---------------------------------------------|
E|---------------------------------------------|

e|------16---------16---------16---------16----|
B|--18----18---18----18---18----18---18----18--|
G|----17---------17---------17---------17------|
D|---------------------------------------------|
A|---------------------------------------------|
E|---------------------------------------------|

Part II

e|-17-----17-----17-----16-----16-----16-------|
B|---18-----18-----18-----18-----18-----18-----|
G|-----17-----17------------17-----17----------|
D|---------------------------------------------|
A|---------------------------------------------|
E|---------------------------------------------|

e|-15-----15-----15-----15-----15-----15-------|
B|---17-----17-----17-----17-----17-----17-----|
G|-----17-----17------------17-----17----------|
D|---------------------------------------------|
A|---------------------------------------------|
E|---------------------------------------------|


8.Break Apart Her Heart:


Intro:  con distorsiσn

|--------------------------------------------—-----------------------|
|--7--7--7-7-7--7-7-7-7—-7-7--7--7--7-7-7--7-7-—7-6-4----------------|
|--x--x--x-x-x--x-x-x-x--x-x--x--x--x-x-x--x-x--x-x-x----------------|x5
|--4--4--4-4-4--4-4-4-4--4-4--4--4--4-4-4--4-4-—4-3-1----------------|
|--------------------------------------------—-----------------------|
|--------------------------------------------—-----------------------|
Verse1: mute
|--------------------------------------------—-----------------------|
|----7---6---4---4---------------------------—-----------------------|
|--4---4---4---4—--x5—--3/4--6-4-6-4-6-4-6-4-—-----------------------|
|--------------------------------------------—-----------------------|
|--------------------------------------------—-----------------------|
|--------------------------------------------—-----------------------|

|--------------------------------------------—-----------------------|
|----7---6---4---4-----------------------------—---------------------|
|--4---4---4---4---x3---3/4--6-4-6-4-6-4-6-4--—----------------------|
|--------------------------------------------—-----------------------|
|--------------------------------------------—-----------------------|
|--------------------------------------------—-----------------------|

|--------------------------------------------—-----------------------|
|----7---6---4---4-----------------------------—---------------------|
|--4-4-4-4-4-4-4-4-x3---3/4--6-4-6-4-6-4-6-4---—---------------------|
|--------------------------------------------—-----------------------|
|--------------------------------------------—-----------------------|
|--------------------------------------------—-----------------------|

Chorus:
|--------------------------------------------—-----------------------|
|--7--7--7-7-7--7-7-7-7—-7-7--7--7--7-7-7--7-7-—7-6-4----------------|
|--x--x--x-x-x--x-x-x-x--x-x--x--x--x-x-x--x-x--x-x-x----------------|x4
|--4--4--4-4-4--4-4-4-4--4-4--4--4--4-4-4--4-4-—4-3-1----------------|
|--------------------------------------------—-----------------------|
|--------------------------------------------—-----------------------|

Verse2:
|--------------------------------------------—-----------------------|
|----7---6---4---4-----------------------------—---------------------|
|--4---4---4---4---x4---3/4--6-4-6-4-6-4-6-4--—----------------------|
|--------------------------------------------—-----------------------|
|--------------------------------------------—-----------------------|
|--------------------------------------------—-----------------------|

|--------------------------------------------—-----------------------|
|----7---6---4---4-----------------------------—---------------------|
|--4---4---4---4---x3---3/4--6-4-6-4-6-4-6-4--—----------------------|
|--------------------------------------------—-----------------------|
|--------------------------------------------—-----------------------|
|--------------------------------------------—-----------------------|

|-------------------------9-6----------------—-----------------------|
|----7---6---4---4----7-9-----7p6-7-9------------—-------------------|
|--4---4---4---4----------------------------—------------------------|
|--------------------------------------------—-----------------------|
|--------------------------------------------—-----------------------|
|--------------------------------------------—-----------------------|

Chorus:
|--------------------------------------------—-----------------------|
|--7--7--7-7-7--7-7-7-7—-7-7--7--7--7-7-7--7-7-—7-6-4----------------|
|--x--x--x-x-x--x-x-x-x--x-x--x--x--x-x-x--x-x--x-x-x----------------|x4
|--4--4--4-4-4--4-4-4-4--4-4--4--4--4-4-4--4-4-—4-3-1----------------|
|--------------------------------------------—-----------------------|
|--------------------------------------------—-----------------------|

Verse3:
|--------------------------------------------—-----------------------|
|--------------------------------------------—-----------------------|
|--8--8--8-8-6-8-6--------------------8--8--8-8-6-8-10---------------|
|--8--8--8-8-6-8-6---8--8--8-8-6-8-6--8--8--8-8-6-8-10---------------|
|--6--6--6-6-4-6-4---8--8--8-8-6-8-6--6--6--6-6-4-6-8----------------|
|--------------------6--6--6-6-4-6-4----------—----------------------|

|--------------------------------------------—-----------------------|
|--------------------------8--8--8-8-6-8-6---—-----------------------|
|--15--15--15-15-11-15-11--8--8--8-8-6-8-6—--------------------------|
|--------------------------6--6--6-6-4-6-4---—-----------------------|
|--13--13--13-13-13-13-13--------------------—-----------------------|
|--------------------------------------------—-----------------------|

|-------------------------9-6----------------—-----------------------|
|----7---6---4---4----7-9-----7p6-7-9------------—-------------------|x10
|--4---4---4---4----------------------------—------------------------|
|--------------------------------------------—-----------------------|
|--------------------------------------------—-----------------------|
|--------------------------------------------—-----------------------|

Chorus:
|--------------------------------------------—-----------------------|
|--7--7--7-7-7--7-7-7-7—-7-7--7--7--7-7-7--7-7-—7-6-4----------------|
|--x--x--x-x-x--x-x-x-x--x-x--x--x--x-x-x--x-x--x-x-x----------------|x4
|--4--4--4-4-4--4-4-4-4--4-4--4--4--4-4-4--4-4-—4-3-1----------------|
|--------------------------------------------—-----------------------|
|--------------------------------------------—-----------------------|

End:
|--------------------------------------------—-----------------------|
|--7--7--7-7-7--7-7-7-7—-7-7--7--7--7-7-7--7-7-—7-6-4----------------|
|--x--x--x-x-x--x-x-x-x--x-x--x--x--x-x-x--x-x--x-x-x----------------|x4
|--4--4--4-4-4--4-4-4-4--4-4--4--4--4-4-4--4-4-—4-3-1----------------|
|--------------------------------------------—-----------------------|
|--------------------------------------------—-----------------------|


|-------------------------9-6----------------—-----------------------|
|----7---6---4---4----7-9-----7p6-7-9------------—-------------------|
|--4---4---4---4-----------------------8----—------------------------|
|--------------------------------------8-----—-----------------------|
|--------------------------------------6-----—-----------------------|
|--------------------------------------------—-----------------------|


9.All Black:


INTRO / CHORUS 1

Eb|-----------------|-----------------|-----------------|
Bb|-----------------|-----------------|-----------------|
Gb|-----------------|-----------------|-----------------| 
Db|-7-7-7-7-7-7-7-7-|-2-2-2-2-2-2-2-2-|-3-3-3-3-3-3-3-3-|
Ab|-7-7-7-7-7-7-7-7-|-2-2-2-2-2-2-2-2-|-3-3-3-3-3-3-3-3-|
Eb|-5-5-5-5-5-5-5-5-|-0-0-0-0-0-0-0-0-|-1-1-1-1-1-1-1-1-|
                                                            x2
Eb|-----------------|                      |---------| 
Bb|-----------------|                      |---------| 
Gb|-----------------|   After second time, |---------| 
Db|-5-5-5-5-5-5-5-5-|   finish with >      |-5-5-5-5-|
Ab|-5-5-5-5-5-5-5-5-|                      |-5-5-5-5-|
Eb|-3-3-3-3-3-3-3-3-|                      |-3-3-3-3-|


VERSE 1

Eb|-----0>-----|-----0>-----|-----2>-----|------4/5-4>---|
Bb|---1--------|---1--------|---1--------|---1--5/6-5>---|   x2
Gb|-2----------|-2----------|-2----------|-2-------------| 
Db|------------|------------|------------|---------------|
Ab|------------|------------|------------|---------------|
Eb|------------|------------|------------|---------------|

Eb|----------------|------------|------------|-------------|
Bb|-10-10--10--10--|-8-8--8--8--|-7-7--7--7--|-9-9--9-9--9-|
Gb|-9--9---9---9---|-7-7--7--7--|-6-6--6--6--|-8-8--8-8--8-| 
Db|-7--7---7---7---|-5-5--5--5--|-4-4--4--4--|-6-6--6-6--6-|
Ab|----------------|------------|------------|-------------|
Eb|----------------|------------|------------|-------------|

Eb|----------------|------------|------------|-------------|
Bb|-10-10--10--10--|-8-8--8--8--|-7-7--7--7--|-------------|
Gb|-9--9---9---9---|-7-7--7--7--|-6-6--6--6--|-------------| 
Db|-7--7---7---7---|-5-5--5--5--|-4-4--4--4--|-7--5--3--0--|
Ab|----------------|------------|------------|-------------|
Eb|----------------|------------|------------|-------------|


<< REPEAT CHORUS 1>>


VERSE 2

Eb|----------------|------------|------------|-------------|
Bb|-10-10--10--10--|-8-8--8--8--|-7-7--7--7--|-9-9--9-9--9-|  x2
Gb|-9--9---9---9---|-7-7--7--7--|-6-6--6--6--|-8-8--8-8--8-| 
Db|-7--7---7---7---|-5-5--5--5--|-4-4--4--4--|-6-6--6-6--6-|
Ab|----------------|------------|------------|-------------|
Eb|----------------|------------|------------|-------------|

Eb|-------------|
Bb|-------------|
Gb|-------------| 
Db|-7--5--3--0--|
Ab|-------------|
Eb|-------------|


<< REPEAT CHORUS 1>>


SOLO / BRIDGE

Guitar 1 (With heavy Reverb)
Eb|------------------------------------------------17>--|
Bb|-17-----17--18-17------------------------------------|
Gb|------------------16----/17-14--/17--16----16-17-----| 
Db|-----------------------------------------------------|
Ab|-----------------------------------------------------|
Eb|-----------------------------------------------------|

Guitar 2 (Backing)
    . .    . .
Eb|-----1------1--|
Bb|-----1--1-1-1--|   x4
Gb|-----2--2-2-2--| 
Db|-2-2-2------2--|
Ab|-0-0-----------|
Eb|---------------|
    . .    . .

PRE CHORUS
    . . . . . . . .
Eb|-----------------|
Bb|-----------------|
Gb|-----------------| 
Db|-7-7-7-7-7-7-7-7-|
Ab|-7-7-7-7-7-7-7-7-|
Eb|-5-5-5-5-5-5-5-5-|
    . . . . . . . .


CHORUS 2

Eb|-----------------|-----------------|-----------------|
Bb|-----------------|-----------------|-----------------|
Gb|-----------------|-----------------|-----------------| 
Db|-7-7-7-7-7-7-7-7-|-2-2-2-2-2-2-2-2-|-3-3-3-3-3-3-3-3-|
Ab|-7-7-7-7-7-7-7-7-|-2-2-2-2-2-2-2-2-|-3-3-3-3-3-3-3-3-|
Eb|-5-5-5-5-5-5-5-5-|-0-0-0-0-0-0-0-0-|-1-1-1-1-1-1-1-1-|
                                                            x4
Eb|-----------------|                       
Bb|-----------------|                    
Gb|-----------------|    
Db|-5-5-5-5-5-5-5-5-|   
Ab|-5-5-5-5-5-5-5-5-|                      
Eb|-3-3-3-3-3-3-3-3-| 

Eb|-----------------|-----------------|                     
Bb|-----------------|-----------------|                      
Gb|-----------------|-----------------|    
Db|-5-5-5-5-5-5-5-5-|-5-5-5-5-5-5-5-5-|   
Ab|-5-5-5-5-5-5-5-5-|-5-5-5-5-5-5-5-5-|                      
Eb|-3-3-3-3-3-3-3-3-|-3-3-3-3-3-3-3-3-| 


OUTRO / SOLO

Guitar 1 (With heavy Reverb)
Eb|-------------------------------------------------|
Bb|-17-----17--18-17--------------------------------|
Gb|------------------16----/17-14--/17--16---16-17--| 
Db|-------------------------------------------------|
Ab|-------------------------------------------------|
Eb|-------------------------------------------------|

Eb|-------------------------------------------------|
Bb|-17--17h18p17----17-17h18p17----17---------------|
Gb|--------------19-------------19-----14--/17--16--| 
Db|-------------------------------------------------|
Ab|-------------------------------------------------|
Eb|-------------------------------------------------|

Eb|-17----------------------------------------------|
Bb|------17-18-17-----------------17----17>---------|
Gb|---------------16--17p16-19p17-------------------| 
Db|-------------------------------------------------|
Ab|-------------------------------------------------|
Eb|-------------------------------------------------|

                     
Guitar 2 (Backing)
    . .    . .
Eb|-----1------1--|
Bb|-----1--1-1-1--|   x5
Gb|-----2--2-2-2--| 
Db|-2-2-2------2--|
Ab|-0-0-----------|
Eb|---------------|
    . .    . .

Eb|----------|----------|----------|----------|                         
Bb|----------|----------|----------|----------|   x2                   
Gb|----------|----------|----------|----------|     
Db|-5>-------|-2>-------|-3>-------|-5>-------|     
Ab|-5>-------|-2>-------|-3>-------|-5>-------|                        
Eb|-3>-------|-0>-------|-1>-------|-3>-------| 


10.Beautifal Place(Chords):

F  F  Am  Am  C  G  Am  Am


F                    Am
Mother can we start over?
    C           G              Am
I wanna be the boy I was back then
               F
Before the world came
             Am
And made me colder
     C           G               Am
I wanna feel the way I did back then
       C         Dm
With love in my heart.

C            G
We live in a beautiful place
Dm             Am
Let love take away all this pain
C            G                  Dm  Dsus2
We live in a beautiful place, oh...
C         G
We wasted so many days
Dm                Am
Our hearts are as dark as the rain
C            G                  Dm   Dsus2
We live in a beautiful place, oh...

F                     Am
Father, can we start over?
C                G                Am
Take me to the places that we lived
             F                   Am
Before the days came and made us older
   C             G               Am
I wanna feel the way I did back then
            C         Dm
Before my heart grew cold

C            G
We live in a beautiful place
Dm             Am
Let love take away all this pain
C            G                  Dm  Dsus2
We live in a beautiful place, oh...
C         G
We wasted so many days
Dm                Am
Our hearts are as dark as the rain
C            G                  Dm  Dsus2
We live in a beautiful place, oh...


F               G                Am
Our hearts are as dark as the rain
F               G                Am
Our hearts are as dark as the rain
F                      G
Its a beautiful place if we make it
       Am                       Dm           Dsus2
It's a beautiful place to be wasted, don’t you know.

Guitar solo

       C
-- -- -- 0  -- ---|
-- -- 1  -- 1  ---|
-- 0  -- -- --  0-|
-- -- -- -- -- --
3  -- -- -- -- --
-- -- -- -- -- --
 We live in a

         G
-- -- -- 3  -- ---|
-- -- 0  -- 0  ---|
-- 0  -- -- --  0-|
-- -- -- -- -- --
-- -- -- -- -- --
3  -- -- -- -- --

beautiful place


       Am
-- -- -- 0  -- ---|
-- -- 1  -- 1  ---|
-- 2  -- -- --  2-|
2  -- -- -- -- --
-- -- -- -- -- --
-- -- -- -- -- --
Let love, take a..

        Dm
-- -- --  1 -- ---|
-- -- 3 –-  3  ---|
-- 2 -- -- --   2-|
0  -- -- -- -- --
-- -- -- -- -- --
-- -- -- -- -- --
..way all this pain

        C
-- -- -- 0  -- ---|
-- -- 1  -- 1  ---|
-- 0  -- -- --  0-|
-- -- -- -- -- --
3  -- -- -- -- --
-- -- -- -- -- --
We live in a..

        G
-- -- -- 3  -- ---|
-- -- 0  -- 0  ---|
-- 0  -- -- --  0-|
-- -- -- -- -- --
-- -- -- -- -- --
3  -- -- -- -- --
beautiful place, ...

    Dm
Oh...

C            G
We live in a beautiful place
Dm             Am
Let love take away all this pain
C            G                  Dm  Dsus2
We live in a beautiful place, oh...
C         G
We wasted so many days
Dm                Am
Our hearts are as dark as the rain
C            G                  Dm  Dsus2
We live in a beautiful place, oh...

C            G
We live in a beautiful place
Dm             Am
Let love take away all this pain
C            G                  Dm  Dsus2
We live in a beautiful place, oh...
C         G
We wasted so many days
Dm                Am
Our hearts are as dark as the rain
C            G                  Dm  Dsus2
We live in a beautiful place, oh...

11.Something Else:

Intro/Verse 1
----------------------------------------------------------------|
-6-6-6-6--2221--Stroke down-------------------------------------|
-8-8-8-8--4443--Hammer each chord-------------------------------|x8
-8-8-8-8--4443--------------------------------------------------|
----------------------------------------------------------------|
----------------------------------------------------------------|
      She is a diamond, I am a stone
      I come from nowhere, she's been to Rome
      Her daddy’s a lawyer, mines not around
      She has good manners, I'm rough all around

Pre chorus
---------------------------------------------------------------|
-6-----4-----6-----2-------------------------------------------|
-8-x10-6-x10-8-x10-4-x10---------------------------------------|
-8-----6-----8-----4-------------------------------------------|
---------------------------------------------------------------|
---------------------------------------------------------------|
Well, you can come from something, you can come from nothing
You can be princess, you can be a working man
But in the end

Chorus
--------------------------------------------------------|
--------------------------------------------------------|
-4-----4-----2----4----------4-----4----4----4----------|
-4-x10-6-x10-4-x5-6-x5-4-----4-x8--6-x8-4-x5-6-x5-4-----|
-2-----6-----4----6----6-x5--2-----6--2-6--  6----6-x5--|
-----------------------6--------------------------6-----|
We all want something else
We all want something we can't have
We all want something else
We all want something strange to us
Maybe a roll in the dirt or it's a seat in first class
We all want something we can’t have

Verse 2
----------------------------------------------------------------|
-6-6-6-6--2-2-2-1--Stroke down----------------------------------|
-8-8-8-8--4-4-4-3--Hammer each chord----------------------------|x8
-8-8-8-8--4-4-4-3-----------------------------------------------|
----------------------------------------------------------------|
----------------------------------------------------------------|
She wants to go to reastraunts in Beverly Hills where people stare
But I don't care, it's just what she grew up around
She drags me to parties where people ask me where I went to college
She knows damn well I barely finished school
She knows a lot about yearly salaries and trust funds and dividends
She knows that I don't really care at all
But we got together and it's working ok

Pre chorus
---------------------------------------------------------------|
-6-----4-----6-----2-------------------------------------------|
-8-x10-6-x10-8-x10-4-x10---------------------------------------|
-8-----6-----8-----4-------------------------------------------|
---------------------------------------------------------------|
---------------------------------------------------------------|
Well, you can come from something, you can come from nothing
You can be princess, you can be a working man
But in the end

Chorus
--------------------------------------------------------|
--------------------------------------------------------|
-4-----4-----2----4----------4-----4----4----4----------|
-4-x10-6-x10-4-x5-6-x5-4-----4-x8--6-x8-4-x5-6-x5-4-----|
-2-----6-----4----6----6-x5--2-----6--2-6--  6----6-x5--|
-----------------------6--------------------------6-----|
We all want something else
We all want something we can't have
We all want something else
We all want something strange to us
Maybe a roll in the dirt or it's a seat in first class
We all want something we can’t have

Bridge
---------/------------------------------------------------------|
-5-5-5-5-/-4------------D-DOwn----------------------------------|
-7-7-7-7-/-6-DUDUDUD----U-Up------------------------------------|
-7-7-7-7-/-6-----------------------77-77------------7--x8-------|
---------/-------------------------55-55-88---x7----5-----------|
---------/-------------------------------66---------------------|
Well, you can spend your whole life looking for something
Something that might be
Right in front of your eyes
But you'll be looking for something else, you'll never find

Outro
-------------------------------/-------------------------------|
-------------------------------/-------------------------------|
-4-----4-----2----4------------/---4-----4----4----4-----------|
-4-x10-6-x10-4-x5-6-x5-4-----x4/---4-x8--6-x8-4-x5-6-x5-4------|
-2-----6-----4----6----6-x5----/---2-----6--2-6----6----6-x5---|
-----------------------6-------/------------------------6------|
We all want something else
We all want something we can't have
We all want something else
We all want something strange to us
We all want something else
We all want something we can't have
We all want something else
We all want something strange to us
Maybe a roll in the dirt or it's a seat in first class
We all want something we can’t have


12.Broken Hearts Parade:

INTRO

  ... . . .   . . . .   ... . . .   . . . .
E---------------------|---------------------|
B---------------------|---------------------|
G---------------------|---------------------|  
D-----------6---------|-----------9---------|
A-444-4-4-4---7-7-7-7-|-777-7-7-7---9-9-9-9-|
E-------------5-5-5-5-|-------------7-7-7-7-|
  ... . . .   . . . .   ... . . .   . . . .

  ... . . .   . . . .   ... . . .   
E---------------------|-------------------|
B---------------------|-------------------|
G---------------------|-------------------|  
D-----------6---------|-----------9-------|
A-444-4-4-4---7-7-7-7-|-777-7-7-7---9-9-9-|
E-------------5-5-5-5-|-------------7-7-7-|
  ... . . .   . . . .   ... . . .   


BRIDGE 1

E---------------------------|---------------------------|
B---------------------------|---------------------------|  x2
G-66-66-6-6-----------------|-99-99-9-9-----------------|  
D-66-66-6-6-7-7-7-7-7-7-7-7-|-99-99-9-9-9-9-9-9-9-9-9-9-|
A-44-44-4-4-7-7-7-7-7-7-7-7-|-77-77-7-7-9-9-9-9-9-9-9-9-|
E-----------5-5-5-5-5-5-5-5-|-----------7-7-7-7-7-7-7-7-|


VERSE 1

Guitar 1                        Guitar 3
E----------------------|       |--------------------2-|
B----------------------|  x4   |------------------4---|
G----------------------|       |----------------------|
D-----6----6---------6-|       |----------------------|
A-4-4--4-4---4-4-4-4---|       |----------------------|
E----------------------|       |----------------------|

Guitar 2
  . . . . . . . . . . . . . . .    . . . . . . . . . . . . . . . . 
E--------------------------------|---------------------------------|
B--------------------------------|---------------------------------|  
G--------------------------------|---------------------------------|  
D-6-6-6-6-6-6-6------------------|-9-9-9-9-9-9-9-9-----------------|
A-4-4-4-4-4-4-4-7-7-7-7-7-7-7-7--|-7-7-7-7-7-7-7-7-9-9-9-9-9-9-9-9-|
E---------------5-5-5-5-5-5-5-5--|-----------------7-7-7-7-7-7-7-7-|
  . . . . . . . . . . . . . . .    . . . . . . . . . . . . . . . .

  . . . . . . . . . . . . . . . .   . . . . . . . . 
E---------------------------------|---------------------------------|
B---------------------------------|---------------------------------|  
G---------------------------------|---------------------------------|  
D-6-6-6-6-6-6-6-6-----------------|-9-9-9-9-9-9-9-9-----------------|
A-4-4-4-4-4-4-4-4-7-7-7-7-7-7-7-7-|-7-7-7-7-7-7-7-7-6-6-6-6-6-6-6-6-|
E-----------------5-5-5-5-5-5-5-5-|-----------------4-4-4-4-4-4-4-4-|
  . . . . . . . . . . . . . . . .   . . . . . . . . 


CHORUS

E---------------------------------|---------------------------------|
B---------------------------------|---------------------------------|  x3
G---------------------------------|-4-4-4-4-4-4-4-4-----------------|  
D-7-7-7-7-7-7-7-7-2-2-2-2-2-2-2-2-|-4-4-4-4-4-4-4-4-7-7-7-7-7-7-7-7-|
A-7-7-7-7-7-7-7-7-2-2-2-2-2-2-2-2-|-2-2-2-2-2-2-2-2-7-7-7-7-7-7-7-7-|
E-5-5-5-5-5-5-5-5-0-0-0-0-0-0-0-0-|-----------------5-5-5-5-5-5-5-5-|

E---------------------------------|-------------------|
B---------------------------------|-------------------|  
G---------------------------------|-4-4-4-4-4-4-4-4---|  
D-7-7-7-7-7-7-7-7-2-2-2-2-2-2-2-2-|-4-4-4-4-4-4-4-4-7-|
A-7-7-7-7-7-7-7-7-2-2-2-2-2-2-2-2-|-2-2-2-2-2-2-2-2-7-|
E-5-5-5-5-5-5-5-5-0-0-0-0-0-0-0-0-|-----------------5-|


<>


VERSE 2

Guitar 1                        
E----------------------|       
B----------------------|  x4   
G----------------------|       
D-----6----6---------6-|       
A-4-4--4-4---4-4-4-4---|       
E----------------------|       

Guitar 2
  . . . . . . . . . . . . . . .   . . . . . . . . . . . . . . . .
E-------------------------------|---------------------------------|
B-------------------------------|---------------------------------|  
G-------------------------------|---------------------------------|  
D-6-6-6-6-6-6-6-----------------|-9-9-9-9-9-9-9-9-----------------|
A-4-4-4-4-4-4-4-7-7-7-7-7-7-7-7-|-7-7-7-7-7-7-7-7-9-9-9-9-9-9-9-9-|
E---------------5-5-5-5-5-5-5-5-|-----------------7-7-7-7-7-7-7-7-|
  . . . . . . . . . . . . . . .   . . . . . . . . . . . . . . . .

  . . . . . . . . . . . . . . .   . . . . . . . . 
E-------------------------------|---------------------------------|
B-------------------------------|---------------------------------|  
G-------------------------------|---------------------------------|  
D-6-6-6-6-6-6-6-----------------|-9-9-9-9-9-9-9-9-----------------|
A-4-4-4-4-4-4-4-7-7-7-7-7-7-7-7-|-7-7-7-7-7-7-7-7-6-6-6-6-6-6-6-6-|
E---------------5-5-5-5-5-5-5-5-|-----------------4-4-4-4-4-4-4-4-|
  . . . . . . . . . . . . . . .   . . . . . . . . 

Guitar 3
  .  .  .  .  .  .   .  .  .  .  .  .  .   .  .  .  .  .  .  .
E---------------------------------------------------------------|
B-14-14-14-14-14-14------------------------12-12-12-12-12-12-12-|  x2
G--------------------13-13-13-13-13-13-13-----------------------|
D---------------------------------------------------------------|
A---------------------------------------------------------------|
E---------------------------------------------------------------|
  .  .  .  .  .  .   .  .  .  .  .  .  .   .  .  .  .  .  .  .


<>


BRIDGE

E----------------------|----------------------|----------------------|
B----------------------|----------------------|----------------------|  
G------66-66-222-4-4-4-|------66-66-222-------|------66-66-222-4-4-4-|  
D-2-22-66-66-222-4-4-4-|-2-22-66-66-222-4-4-4-|-2-22-66-66-222-4-4-4-|
A-2-22-44-44-000-2-2-2-|-2-22-44-44-000-4-4-4-|-2-22-44-44-000-2-2-2-|
E-0-00-----------------|-0-00-----------2-2-2-|-0-00-----------------|

E----------------------------|---------------------------------|
B----------------------------|---------------------------------|  
G------66-66-2-2-2-2-2-2-2-2-|---------------------------------|  
D-2-22-66-66-2-2-2-2-2-2-2-2-|-6-6-6-6-6-6-6-6-6-6-6-6-6-6-6-6-|
A-2-22-44-44-0-0-0-0-0-0-0-0-|-6-6-6-6-6-6-6-6-6-6-6-6-6-6-6-6-|
E-0-00-----------------------|-4-4-4-4-4-4-4-4-4-4-4-4-4-4-4-4-|

E---------------------|
B---------------------| 
G-2>--------6>--------|  
D-2>--------6>--------|
A-0>--------4>--------|
E---------------------|

E---------------------------------|---------------|
B---------------------------------|---------------| 
G-7-7-7-7-7-7-7-7-6-6-6-6-6-6-6-6-|---------------|  
D-7-7-7-7-7-7-7-7-6-6-6-6-6-6-6-6-|-4-4-4-4-4\----|
A-5-5-5-5-5-5-5-5-4-4-4-4-4-4-4-4-|-4-4-4-4-4\----|
E---------------------------------|-2-2-2-2-2\----|

E---------------------------------|-----------------|
B---------------------------------|-----------------| 
G-7-7-7-7-7-7-7-7-6-6-6-6-6-6-6-6-|-----------------|  
D-7-7-7-7-7-7-7-7-6-6-6-6-6-6-6-6-|-4-4-4-4-4-4-4-4-|
A-5-5-5-5-5-5-5-5-4-4-4-4-4-4-4-4-|-4-4-4-4-4-4-4-4-|
E---------------------------------|-2-2-2-2-2-2-2-2-|


FINAL CHORUS

E---------------------------------|---------------------------------|
B---------------------------------|---------------------------------|  x3
G---------------------------------|-4-4-4-4-4-4-4-4-----------------|  
D-7-7-7-7-7-7-7-7-2-2-2-2-2-2-2-2-|-4-4-4-4-4-4-4-4-7-7-7-7-7-7-7-7-|
A-7-7-7-7-7-7-7-7-2-2-2-2-2-2-2-2-|-2-2-2-2-2-2-2-2-7-7-7-7-7-7-7-7-|
E-5-5-5-5-5-5-5-5-0-0-0-0-0-0-0-0-|-----------------5-5-5-5-5-5-5-5-|

E---------------------------------|----------------------------------|
B---------------------------------|----------------------------------|  
G---------------------------------|-4-4-4-4-4-4-4-4-4-4-4-4-4-4-4-4>-|  
D-7-7-7-7-7-7-7-7-2-2-2-2-2-2-2-2-|-4-4-4-4-4-4-4-4-4-4-4-4-4-4-4-4>-|
A-7-7-7-7-7-7-7-7-2-2-2-2-2-2-2-2-|-2-2-2-2-2-2-2-2-2-2-2-2-2-2-2-2>-|
E-5-5-5-5-5-5-5-5-0-0-0-0-0-0-0-0-|----------------------------------|


13.March On(Chords):


Verse 1:

F#       A7
Don't cry,
Dm            C
open up your eyes and know
      Bb                 C                     F#
there's someone else out there that feels this way.
   F#           A7
I'm singin' to you
      Dm                    C
cuz i know what you've been through and now
     Bb             C              F#
it's not that long ago i felt the same.

Chorus:
Bb            C
Like soldiers, march on.
F#                           G/B                  Bb
if we can make it through the night we'll see the sun.
     C         F#
March on. March on.

Verse 2:
F#         A7                  Dm
I remember summer nights alone,
              C             Bb
Fireflies the only thing we owned,
                C              F#
all we had were dreams of California.
               A7                  Dm
And i remember winters were so cold,
               C                 Bb
hunger was the only thing we've known,
                  C                 F#
and rock n' roll dreamin' was what saved us.

Chorus:

Bridge:
Dm/A   C       Bb
Til we see the sun.
Dm/A   C       Bb
Til we see the sun.
            Dm/A
Through the good times,
            C
Through the bad times,
            Bb
Through the long days,
            Bb
through the hard nights.
     Dm/A      C       Bb
Keep on til we see the sun.

Chorus 2x's

Tag:
Bb                        C
even when there's no one there for you march on.
Bb                     C
even when the days are long for you march on.
Bb             C
Like soldiers,
        F#
March on

A Massive thanks to all the people who submitted these tabs!
That's it for now I hope it helps!
Add me on:
www.myspace.com/gazguitarkid438709
or
guitarkidgaz.bebo.com
Comment and rate!


Tap to rate this tab
# A B C D E F G H I J K L M N O P Q R S T U V W X Y Z